VGJam Tabs Final Fantasy III
Final Fantasy III
"Edgar & Sabin (Figaro Castle)" - Guitar tab
Platform(s):Super NES
Composed by:Nobuo Uematsu
Tabbed by:Daniel Kielman
Last modified:1999-09-19
Print it:Original file (.TXT)
Hear it:MIDI file
Song: Figaro Castle Theme
From: Final Fantasy III (VI on Super Famicon)
Transcribed by: Daniel Kielman

Okay. I believe you need to tune your guitar so they are sharp tuned. Or, 
regular sounds all right too, but I am unsire about the tuning on this song 
(any guesses on it, e-mail me (adventureless@hotmail.com))

This song is VERY slow, so pace yourself, and have fun.
1-------|-----------------|-----------------|
2-------|-----------------|-----------------|
3-2-5-4-|-0-2-5-4-0-2-5-4-|-2h5-7-5-7-5-----|
4-------|-----------------|-------------5-7-|
5-------|-----------------|-----------------|
6-------|-----------------|-----------------|

1-------|-----------------|-----------------|
2-------|-----------------|-----------------|
3-2-5-4-|-0-2-5-4-0-2-5-4-|-2h5-7-5-7-9-5-7-|
4-------|-----------------|-----------------|
5-------|-----------------|-----------------|
6-------|-----------------|-----------------|

1--------------------------------------------|
2--------------------------------------------|
3-7-5-7-9-5----------------------------------|
4-----------7-5-7-10-5-----------------------|
5-----------------------7-5-7-10-7---0-2-3-5-|
6----------------------------------5---------|

1----------------------|
2----------------------|
3-7-5-7-9-5------------|
4-----------7-5-7-10-5-|
5----------------------|
6----------------------|

1---|---------------|---------------|-------------------|
2---|---------------|---------------|-------------------|
3---|---------------|---------------|-------------------|
4-7-|-7-7-7-7-5-5-7-|-7-7-7-7-5-5-7-|-7--7--7-7-7-7-7-7-|
5---|---------------|---------------|-------------------|
6---|---------------|---------------|-------------------|

Then, it all repeats again.
Just to say, The last part there has 2 guitars. I only did the 2nd guitar, 
so you might think that part is a bit off, which is compared to what it 
should be. If anyone figures it out, then send it in, but otherwise, this is 
the whole thing pretty much.

VGJam Tabs Final Fantasy III - "Edgar & Sabin (Figaro Castle)"
Tabs database last modified Tuesday, 01-Nov-2016 19:14:53 UTC.
Copyright © 1999 - 2016 VideoGameJam.com. All rights reserved.