VGJam Tabs Final Fantasy III
Final Fantasy III
"Edgar & Sabin (Figaro Castle)" - Guitar tab
Platform(s):Super NES
Composed by:Nobuo Uematsu
Tabbed by:Roderick Layne
Last modified:1999-11-10
Print it:Original file (.TXT)
Hear it:MIDI file
Figaro's Theme (Final Fantasy 3)
================================

Transcribed by Roderick Layne (rcklayne@bol.com.br)

e-------|-------------------|-------------|  \
B-------|-------------------|-------------|  |
G-2-5-4-|-0-2-5-4-0-2-5-4-0-|-7-5-7-5-0-2-|  |
D-------|-------------------|-------------|  |
A-------|-------------------|-------------|  |
E-------|-------------------|-------------|  |\
                                             | | 2x
e-------|-------------------|-------------|  |/
B-------|-------------------|-------------|  |
G-2-5-4-|-0-2-5-4-0-2-5-4-0-|-7-5-7-9-5-7-|  |
D-------|-------------------|-------------|  |
A-------|-------------------|-------------|  |
E-------|-------------------|-------------|  /

e--------------------------------------------|
B--------------------------------------------|
G-7-5-7-9-5----------------------------------|
D-----------7-5-7-10-7--5-3-5-7-3-0--0-2-3-7-|
A--------------------------------------------|
E--------------------------------------------|

e-----------------------------------------------------------|
B-----------------------------------------------------------|
G-7-5-7-9-5-------------------------------------------------|
D-----------7-5-7-10-7-8---8p7p5h7h8---8p7p5h7h8---8-8-8888-|
A-----------------------------------------------------------|
E-----------------------------------------------------------|

VGJam Tabs Final Fantasy III - "Edgar & Sabin (Figaro Castle)"
Tabs database last modified Tuesday, 01-Nov-2016 19:14:53 UTC.
Copyright © 1999 - 2016 VideoGameJam.com. All rights reserved.