VGJam Tabs Final Fantasy III
Final Fantasy III
"Epitaph (Darryl/Setzer theme)" - Guitar tab
Platform(s):Super NES
Composed by:Nobuo Uematsu
Tabbed by:Thomas McManus
Last modified:2000-01-21
Print it:Original file (.TXT)
Hear it:MIDI file
Game: Final Fantasy VI
Song: Epitaph
Composed by: Nobuo Uematsu
Tabbed by: Thomas McManus (tom0015@hotmail.com)

This is rather tricky, since there are two or three
instruments playing at once. I'll identify them throughout
the song. There are backgrounds for B, and a Background2 for C,
but I can't figure out what they are.

Lead - acoustic or electric, your choice
Background - electric (clean)
Background2 - acoustic

Background2; intro:
e-------0------------0-----------0-----------0-
B-----2------------3-----------2-----------3---
G---2------------0-----------2-----------0-----
D----------------------------------------------
A-0------------------------0-------------------
E--------------0-----------------------0-------

Lead; part A:
e---0---------------------------------0-------3-1-0-------------
B-----3-2---0-2-0---0-------------------3-2---------3-5~~~~~~---
G-2-------2-------0---2~~~~~~~~-----2-------2-------------------
D---------------------------------------------------------------
A---------------------------------------------------------------
E---------------------------------------------------------------

Background; part A:
e------------------------0-------------------------------0------
B--------------------------3-5~~~~-------------------------3-2~~
G----------------------2-------------------------------2--------
D---------------------------------------------------------------
A---------------------------------------------------------------
E---------------------------------------------------------------

Background2; part A:
e-------0-------0--------0---0---0---------0-------0---
B-----2-------3---------2---3---2--------2-------3-----
G---2-------0----------2---0---2-------2-------0-------
D------------------------------------------------------
A-0-------------------0-------0------0-----------------
E---------0---------------0------------------0---------

e----0---0---0----
B---2---3---2--2--
G--2---0---2----2-
D-----------------
A-0-------0-------
E-----0-----------

Lead; part B:
e-12-10-8-5-7-8-10-12~~~~~----3-2-0-------0-2~~~~~--------------
B-----------------------------------0-2-3-----------------------
G---------------------------------------------------------------
D---------------------------------------------------------------
A---------------------------------------------------------------
E---------------------------------------------------------------

Lead; part C:
e-1~~~~~~~~~----------------------------------------------------
B--------------5~~~~~~~~~~~----3~~~~~~~~~~~-2~~~~--1~~~~~~~~~~--
G---------------------------------------------------------------
D---------------------------------------------------------------
A---------------------------------------------------------------
E---------------------------------------------------------------

Background; part C:
e-1~~~~~-3-1----------------------------------------------------
B------------3-5~~~~~~~~-------3~~~~~-5-3-0-2~~~~~-1~~-3-1------
G----------------------------------------------------------2-3~~
D---------------------------------------------------------------
A---------------------------------------------------------------
E---------------------------------------------------------------

repeat from part A


VGJam Tabs Final Fantasy III - "Epitaph (Darryl/Setzer theme)"
Tabs database last modified Tuesday, 01-Nov-2016 19:14:53 UTC.
Copyright © 1999 - 2016 VideoGameJam.com. All rights reserved.