VGJam Tabs Final Fantasy III
Final Fantasy III
"Forever Rachel" - Guitar tab
Platform(s):Super NES
Composed by:Nobuo Uematsu
Tabbed by:C.J. Clark
Last modified:2000-02-06
Print it:Original file (.TXT)
Hear it:MIDI file
Song: Forever Rachel
Game: Final Fantasy 3
System: Super NES
Tabbed by C.J. Clark  (CradloFlth@AOL.com)

Any comments or concerns please E-mail me.  This is my first complete tab 
so be nice to me.  If you think its being played too high, then just drop
everything down a few frets, simple.  Well, enjoy and don't forget the 
beauty of the scene in the game.  =) 

Opener:
e|----------------------8---8-7-5-3-7-5~-----13---13-12-10-8-12-10~-
B|-8---8-7-5-3-7-5~-------------------------------------------------
G|------------------------------------------------------------------
D|------------------------------------------------------------------
A|------------------------------------------------------------------
E|------------------------------------------------------------------

	-6-8-10~----6-8-10~--
	---------------------
	---------------------
	---------------------
	---------------------
	---------------------

Riff 1:
e|-15--11-15-17--22-20-18-17-15-13-10-
B|------------------------------------
G|------------------------------------
D|------------------------------------
A|------------------------------------
E|------------------------------------

Riff 2:
e|-10-10-8-15---9-7-15----17-18-17-12----|-12-15-14-17-----------
B|---------------------------------------|-----------------------
G|---------------------------------------|-----------------------
D|---------------------------------------|-----------------------
A|---------------------------------------|-----------------------
E|---------------------------------------|-----------------------

Play Riff 1 again then

Riff 1 alternate end:
e|-10-8-15-18-17-14-15~---------------
B|------------------------------------
G|------------------------------------
D|------------------------------------
A|------------------------------------
E|------------------------------------

Then comes the other instrument for a little bit.

Then Play Riff 1 and Riff 2 again
Then Play Riff 1 with the alternate ending added on.

That should be it, if not, repeat some other one's above.

VGJam Tabs Final Fantasy III - "Forever Rachel"
Tabs database last modified Tuesday, 01-Nov-2016 19:14:53 UTC.
Copyright © 1999 - 2016 VideoGameJam.com. All rights reserved.