VGJam Tabs Final Fantasy III
Final Fantasy III
"Forever Rachel" - Guitar tab
Platform(s):Super NES
Composed by:Nobuo Uematsu
Tabbed by:Paul Hasas
Last modified:2001-06-17
Print it:Original file (.TXT)
Hear it:MIDI file
Composer: Nobuo Uematsu
Title: Forever Rachel
Game: Final Fantasy VI
Platform: Super NES

Transcribed by: W4lf
Email: bigbadw4lf@hotmail.com


Comments:
A beautiful song...
Fortunately, it's not all that difficult to play.


h = hammer-on
p = pull-off
/ = slide up
\ = slide down


Guitar (backup guitar)

e ||-15-------15-14p12----14--|-12-----------------------|
b ||-------12----------15-----|--------------------------|
G ||----12--------------------|--------------------------|
D ||-14----------12-----------|-10-----------------------|
A ||--------------------------|--------------------------|
E ||--------------------------|--------------------------|


|--8-----------7-----------|--5-----------------------|
|--------5-----------------|-----------5--8-----------|
|-----5-----5--------7-----|--------5-----------------|
|--7--------------9-----9--|-----7--------------------|
|-------------10-----------|--8-----------------------|
|--------------------------|--------------------------|


|-13-------10-12-10----12--|--8-----------------8-----|
|-------10----------13-----|-------------11-----------|
|----10--------------------|--------------------------|
|-12----------10-----------|-10-----------------------|
|--------------------------|--------------------------|
|--------------------------|--------------------------|


|-10-----------------------|--------------------8-----|
|-------11----10-----------|-------------11-----------|
|-------------------12-----|-------12----10-----9-----|
|----12----12----12----12--|----12----12----12----10--|
|-10-----------------------|-10-----------------------|
|--------------------------|--------------------------|


|-10-----------------------|--------------------------||
|-------------10-----------|--------------------------||
|----------12----12--------|-11-----------------------||
|-------12----------12-----|--------------------------||
|----12----------------12--|--------------------------||
|-10-----------------------|-10-----------------------||



||----------------------------|--------------------------|
||------10-11-------10-11-----|-----8-10--------8-10-----|
||-*-12-------12----------12--|-10-------10----------10--|
||-*-------------12-----------|-------------10-----------|
||---10----------------10-----|--8-----------------------|
||----------------------------|--------------------------|


|--------------------------|--------------6-----------|
|-----6--8--------6--8-----|--------6-----------6-----|
|--8--------8-----------8--|-----7-----7-----7-----7--|
|--------------8-----------|--8-----------------------|
|--6-----------------6-----|--------------------------|
|--------------------------|--6-----------------------|

  ____________________________________________________
|1.
|--------------8-----------|----------15-20-----------|
|-----------8--------------|----15-16-----------------|
|-----7--8----------p0-----|-17-----------------------|
|-10-----------------------|--------------------------|
|--------------------------|-15-----------------------|
|--8-----------------------|--------------------------|

_____________________________________________________

|-----------3--6-----------|----------10-13-----------|
|--------3-----------------|-------11-----------------|
|-----3--------------------|----12--------------------|
|--5----------------p0-----|-12-----------------------|
|--------------------------|-10-----------------------|
|--3-----------------------|--------------------------|

_____________________________________________________

|-------------12-----------|--------------9-----------|
|-------10----------10-----|-------10----------10-----|
|-----9-----9-----9-----9--|-----9-----9-----9-----9--|
|--7-----------------------|-11-----------------------|
|--0-----------------0-----|--------------------------|
|--------------------------|--9-----------------9-----|

______________________________________________________
						       |
|-------------10-----------|-10-----8-------------------||
|-10----10----------10-----|-------------11----10-------||
|----11----11----11----11--|-----7-----7--------------*-||
|--0-----------------------|--0-------------12----12--*-||
|--------------------0-----|--------------9-------------||
|--------------------------|----------------------------||

  _____________________
|2.
|-----------4--8-----------|--------0-h3--5-p3--------|
|--------4-----------------|--------------------3-----|
|-----5--------------------|--2-h5-----------------2--|
|--6-----------------------|--0-----------------------|
|--------------------------|--------------0-----------|
|--4-----------------4-----|--------------------------|


|-----------8-10--8--------|--------------------------|
|--------8-----------8-----|--------------------------|
|--------------------------|--0-----------------------|
|----10----------------12--|--------------------------|
|-10-----------------------|--------------------------|
|--------------------------|--3-----------------------|


Comments, gripes, suggestions, and corrections are very welcome.

--> bigbadw4lf@hotmail.com


VGJam Tabs Final Fantasy III - "Forever Rachel"
Tabs database last modified Tuesday, 01-Nov-2016 19:14:53 UTC.
Copyright © 1999 - 2016 VideoGameJam.com. All rights reserved.