VGJam Tabs Final Fantasy III
Final Fantasy III
"Gau's theme" - Guitar tab
Platform(s):Super NES
Composed by:Nobuo Uematsu
Tabbed by:Jonas "Watts" Ohlsson
Last modified:1999-05-06
Print it:Original file (.TXT)
Hear it:MIDI file
FINAL FANTASY III Guitar Tab
Gau's Theme
Version 1.0
Made By: Jonas "Watts" Ohlsson 

     Riff 1                   
e |-------------------------------|
B |-------------------------------|
G |-------------------------------|
D |-----------------------2-------|
A |-----4--4--2--0-----0----------|
E |--0--------------4-------------|

     Riff 2                   
e |--------------------|
B |--------------------|
G |--------------------|
D |--2--4--5-----------|
A |-----------2--4--5--|
E |--------------------|

   Riff 3                          
e |--------------------|
B |--------------------|
G |--------------------|
D |--------------------|
A |--5--4--5--2--4--5--|
E |--------------------|

   Riff 4                          
e |--------------------|
B |--------------------|
G |--------------------|
D |--------------------|
A |--4--2--4--0--2--4--|
E |--------------------|


   Riff 5                          
e |------------------------------------------|
B |------------------------------------------|
G |------------------------------------------|
D |-----1--2-------4--2--1--4----2--1--2-----|
A |--4--------4---------------------------4--|
E |------------------------------------------|

   Riff 6                          
e |------------------------|
B |------------------------|
G |------------------------|
D |-----1--2---------1--3--|
A |--4--------4---4--------|
E |------------------------|


 
VGJam Tabs Final Fantasy III - "Gau's theme"
Tabs database last modified Tuesday, 01-Nov-2016 19:14:53 UTC.
Copyright © 1999 - 2016 VideoGameJam.com. All rights reserved.