VGJam Tabs Final Fantasy III
Final Fantasy III
"Gogo's theme" - Guitar tab
Platform(s):Super NES
Composed by:Nobuo Uematsu
Tabbed by:Wriggler
Last modified:2001-12-13
Print it:Original file (.TXT)
Hear it:MIDI file
Final Fantasy 3 (6 J.)
SNES/Super Famicom
Originally Composed by Nobuo Uematsu
tabbed by Wriggler
Gogo's Theme

Riff 1-intro  1X

A-5--5-5--5--7--8-----8--8-8--8-10-11
E-3--3-3--3--5--6-----6--6-6--6--8--9

Riff 2- main riff

G-12------12---15--14--14---------11h12--------12-12---------------------------------------
D-----12-------------------12h14-----------------------12--15--13--12--------------11--12/
A----------------------------------------------------------------------15--13--12--------
 these are just the notes, listen to a midi or something for the feel! I like to palm mute the last bit

Riff 2 B

e--15-----15---18--17--17---------14h15-   this is played after the above riff usually, listen to the song.
B-----15-------------------15h17--------     it doesnt matter really as it's the same notes anyway

then the tail on the end.. Riff 2 C

B-11--11---10-9-8------------------
G---------------------7------------
D-8----8----7-6-5-------5----6---5

repeat the entire main part once, then into the interlude bit

Riff 3 A Interlude

G- 12-12--12--11--10-9-----12--12-12--10-9      1X , then

Riff 3 B

G--------------------------------------------------14-15
D-12h15--12h15--------12--15~--12h15--12h15------     1X , then
A---------------12h13--------------------------------

Riff 3 C

G-12---14--15--14--15-15--14-12---12-13  suddenly stop any sustain, then....

Riff 3 D  the lovely descend...

B-15h18--18-----------------------------------------------------------------------------
G-------------15/13--12h13------13-13-13---13-12--11-10---10-10-10---10--9-8--7~

Then this linking riff...which is also played under Riff 2 throughout the whole song 
in some for or another..just improvise with it a little

G----7--7
D-5------   4 X, then right back into the main part. It's all repeated about 2 times, with the third time fading out
A----5--                                                                as with most of Uematsu's tracks

don't play this unless you're familiar with the song, some timing may be weird, as some sequences are slow 
and then go into a slight flurry of the notes. It's pretty cool sounding, and very playable however. have fun.

VGJam Tabs Final Fantasy III - "Gogo's theme"
Tabs database last modified Tuesday, 01-Nov-2016 19:14:53 UTC.
Copyright © 1999 - 2016 VideoGameJam.com. All rights reserved.