VGJam Tabs Final Fantasy III
Final Fantasy III
"Kefka's theme" - Guitar tab
Platform(s):Super NES
Composed by:Nobuo Uematsu
Tabbed by:Grahf
Last modified:2000-01-13
Print it:Original file (.TXT)
Hear it:MIDI file
Kefka's Theme
Tabbed by Grahf(Anthony Harris)
rolfe@fidnet.com

I especially like the sinister sound to this one.
Enjoy playing it! ^_^

riff 1
-------------------0-----2-----------3-----2--0--2--
-0-----2-----3-----------------3--------------------
----------------------------------------------------
----------------------------------------------------
----------------------------------------------------
----------------------------------------------------


-----------0----------------------------------------
-3----2---------3----0---------0----2----0----------
--------------------------3-------------------------
----------------------------------------------5-----
----------------------------------------------------
----------------------------------------------------


----------------------------------------------------
----------------------------------------------------
----------------------------------------------------
-4--5--4--5--3--4-----5--4--5--4--3--4--5--4--------
----------------------------------------------------
----------------------------------------------------


-------------------0-----2-----------3-----2--0--2--
-0-----2-----3-----------------3--------------------
----------------------------------------------------
----------------------------------------------------
----------------------------------------------------
----------------------------------------------------

                                       riff 2
-----------0-------------------------|---2-2-2-2-2--
-3----2---------3----0---------0---2-|--------------
--------------------------3----------|--------------
-------------------------------------|--------------
-------------------------------------|-2---2---2----
-------------------------------------|--------------


-5----3-----1----2-----3----5-----3----2----5\3---2-
----------------------------------------------------
----------------------------------------------------
----------------------------------------------------
-2----------2----------2----------2---------2-------
----------------------------------------------------


---3-3-3-3-3----6----5-----2----3-----5----6--------
----------------------------------------------------
----------------------------------------------------
----------------------------------------------------
----------------------------------------------------
-3---3---3------3----------3----------3-------------

                         riff 3
-5----3----2---3-----|-----2--------------------0-0-
---------------------|-----------2--3--0----3-------
---------------------|------------------------------
---------------------|------------------------------
---------------------|------------------------------
-3---------3---------|------------------------------

              riff 4
-----------|----------------------------------------
-3----2----|-0----2----3----------------0----2----3-
-----------|-4----4----4----6-4-3-4-6---4----4----4-
-----------|----------------------------------------
-----------|----------------------------------------
-----------|----------------------------------------


----------------------------------------------------
-------------0----2----3----5----7----3----2----0---
-9-7-6-7-9---4----4----4----4----4----4----4----4---
----------------------------------------------------
----------------------------------------------------
----------------------------------------------------


----------------------------------------------------
-0----5----3----2----0------------------------------
-3------------------------3----1--------------------
----------------------------------------------------
----------------------------------------------------
----------------------------------------------------


Order is:
Riff 1
Riff 2
Riff 3
Riff 2
Riff 3
Riff 4
Then it repeats all over again.


VGJam Tabs Final Fantasy III - "Kefka's theme"
Tabs database last modified Tuesday, 01-Nov-2016 19:14:53 UTC.
Copyright © 1999 - 2016 VideoGameJam.com. All rights reserved.