VGJam Tabs Final Fantasy III
Final Fantasy III
"Kids Run Through the City Corner" - Guitar tab
Platform(s):Super NES
Composed by:Nobuo Uematsu
Tabbed by:Thomas McManus
Last modified:2000-02-12
Print it:Original file (.TXT)
Hear it:MIDI file
Game: Final Fantasy VI
Song: Kids Run Through the City Corner
Composed by: Nobuo Uematsu
Tabbed by: Thomas McManus (tom0015@hotmail.com)

There are a few notes that don't sound quite right, any
corrections welcomed. The notes in [brackets] are the
transitional notes between parts of the piece.

e---------------------------------------0-----------------------
B-3-1-----------0---0--------0---0-3~-----3-1-1-0-0-1-----------
G-----2-----0-2---2---0~-0-2---2------0---------------2---------
D-------4-4-----------------------------------------------------
A---------------------------------------------------------------
E---------------------------------------------------------------

e------------------------------0-2-3----------------------------
B-----0---0--------0---0-3~----------0--------------------------
G-0-2---2---0~-0-2---2------0----------2-2~-0~~-----------------
D---------------------------------------------------------------
A---------------------------------------------------------------
E---------------------------------------------------------------
*
e--------------------2~---3-2-0-0-----0-------------------------
B-3-1-3-0~-0-1-3-1-3----0---------3-3---1~~---------------------
G---------------------------------------------------------------
D---------------------------------------------------------------
A---------------------------------------------------------------
E---------------------------------------------------------------

e------------------------1~---0-2-3-----------------------------
B-0-1-3-1-3-0~-0-1-3-1-3----3-------3-1-1-0~~--[0~~~]-----------
G----------------------------------------------------[2~~~]-----
D---------------------------------------------------------------
A---------------------------------------------------------------
E---------------------------------------------------------------

e---3-2-3-0-----0----------3-2-3-0-----0-----3-2-3-0-0-2-3-2-3--
B-0---------3-1---3~-0~--0---------3-1---3~~--------------------
G---------------------------------------------------------------
D---------------------------------------------------------------
A---------------------------------------------------------------
E---------------------------------------------------------------

e-5~--0-2-3-----------------------------------------------------
B-----------0~-----------------1~~~]----------------------------
G--------------2-2~-0~~~-[0~~~----------------------------------
D---------------------------------------------------------------
A---------------------------------------------------------------
E---------------------------------------------------------------

then repeat from the *

VGJam Tabs Final Fantasy III - "Kids Run Through the City Corner"
Tabs database last modified Tuesday, 01-Nov-2016 19:14:53 UTC.
Copyright © 1999 - 2016 VideoGameJam.com. All rights reserved.