VGJam Tabs Final Fantasy III
Final Fantasy III
"The Magic House (Owzer's house)" - Guitar tab
Platform(s):Super NES
Composed by:Nobuo Uematsu
Tabbed by:Ian McCowan
Last modified:2002-04-01
Print it:Original file (.TXT)
Hear it:MIDI file
Game- Final Fantasy 3/6j
System- SNES 
Composer- Nobuo Uematsu
Tabbed By- Ian McCowan
Song- The Magic House/Owzer's House

Just the main melody line throughout. Rhythm is indicated, a little bit. But let's face it, if you're actually looking for Final Fantasy guitar tab, you know how this goes. :)

Few of the little flouncy things are included here. The obvious ones are indicated by tildes (~).

Chris Jones tabbed the intro (about the first line and a half) and I took it from there.

Enjoy.

If you like this, fire me off an email at valrus@mac.com or visit my web page:
http://141.140.101.157/
It's only up when my computer's on.

E |------------------------------------------------------------------
B |------------------------------------------------------------------
G |------------------------------------------------------------------
D |------------------------------------------------------------------
A |----7--------3-----------------5---------------------7-------3----
E |-5--------------4--------5--7-----8~~7--4--5--5--5--------------4-



E |----------------------------------0--5--8--7--5--4--7--13-12-10-8-
B |-------------------------------4----------------------------------
G |------------------------------------------------------------------
D |------------------------------------------------------------------
A |----------3h5p3p2-----0-------------------------------------------
E |-4--1--0----------------------------------------------------------



E |-7--8-----------------17~---------------------17~-----------------
B |-------------17-18~17----17-18~15----15-17~15----15-15~13---------
G |------------------------------------------------------------------
D |------------------------------------------------------------------
A |------------------------------------------------------------------
E |------------------------------------------------------------------


	fast!
E |----------12----12----12----12----12----12----12------------------
B |-10-12-13----12----10----------10---------------------------------
G |-------------------------13----------------10---------------------
D |-------------------------------------14----------12-10----9~~~~~7-
A |------------------------------------------------------------------
E |------------------------------------------------------------------


VGJam Tabs Final Fantasy III - "The Magic House (Owzer's house)"
Tabs database last modified Tuesday, 01-Nov-2016 19:14:53 UTC.
Copyright © 1999 - 2016 VideoGameJam.com. All rights reserved.