VGJam Tabs Final Fantasy III
Final Fantasy III
"Magitek Factory ("Devil's Lab")" - Guitar, Bass tab
Platform(s):Super NES
Composed by:Nobuo Uematsu
Tabbed by:Deezer
Last modified:2001-12-10
Print it:Original file (.TXT)
Hear it:MIDI file
#----------------------------------PLEASE NOTE---------------------------------#
#This file is the author's own work and represents their interpretation of the #
#song. You may only use this file for private study, scholarship, or research. #
#------------------------------------------------------------------------------#

Final Fantasy III (Super NES) / Final Fantasy VI (Super Famicom)
"Devil's Lab" (Magitek Factory)

Originally composed by: Nobuo Uematsu
------------------------------------------------------------------------------
Tabbed by: Deezer (deezer@kontek.net)
For http://www.kontek.net/vgjam/
------------------------------------------------------------------------------

Standard Tuning - (low to high) EADGBe


("Guitar" is trumpet tabbed for guitar. And I don't have a bass guitar, so
 don't kill me if the bass is wrong...)

G|-----------------------------------------------------------------
U|-----------------------------------------------------------------
I|-----------------------------------------------------------------
T|-----------------------------------------------------------------
A|-----------------------------------------------------------------
R|-----------------------------------------------------------------
 |
B|-------------------------1---------------------------------------
A|---------2---------1-2-4-----------------------------------------
S|-4---4---------3-4-----------3---4---4---------3-4---4-----------
S|-----------------------------------------------------------------


G|---------------------------------------------------------------
U|---------------------------------------------------------------
I|---------------------------------------------------------------
T|---------------------------------------------------------------
A|---------------------------------------------------------------
R|---------------------------------------------------------------
 |
B|---------1-------------------------------------------------------
A|-2---2---------2-4-4-4-4-----------------------------------------
S|-------------------------1---2-3-4---4---------3-4---4-----------
S|-----------------------------------------------------------------

Guitar enters:

G|---------------------------------7---6---------------------------
U|---------9---8-----------------------------------8---9-----------
I|-6---6-9---------9---5---6---9-----------------------------------
T|---6-------------------------------------------------------------
A|-----------------------------------------------------------------
R|-----------------------------------------------------------------
 |
B|-------------------------1---------------------------------------
A|---------2---------1-2-4-----------------------------------------
S|-4---4---------3-4-----------3---4---4---------3-4---4-----------
S|-----------------------------------------------------------------


G|---------7-------------------------------------------------------
U|-------9---------------------------------------------------------
I|-9---9-------9---6-----------------------------------------------
T|---9-----------------9---8---5---6-------------------------------
A|-----------------------------------------------------------------
R|-----------------------------------------------------------------
 |
B|---------1-------------------------------------------------------
A|-2---2---------2-4-4-4-4-----------------------------------------
S|-------------------------1---2-3-4---4---------3-4---4-----------
S|-----------------------------------------------------------------


G|---------------------------------7---6---------------------------
U|---------9---8-----------------------------------8---9-----------
I|-6---6-9---------9---5---6---9-----------------------------------
T|---6-------------------------------------------------------------
A|-----------------------------------------------------------------
R|-----------------------------------------------------------------
 |
B|-------------------------1---------------------------------------
A|---------2---------1-2-4-----------------------------------------
S|-4---4---------3-4-----------3---4---4---------3-4---4-----------
S|-----------------------------------------------------------------


G|------------------------------------------------------------------
U|---------9-------6---6--------------------------------------------
I|-9---9---------9---------9---8---6--------------------------------
T|------------------------------------------------------------------
A|------------------------------------------------------------------
R|------------------------------------------------------------------
 |
B|---------1--------------------------------------------------------
A|-2---2---------2-4-4-4-4------------------------------------------
S|-------------------------1---2-3-4---4---------3-4---4------------
S|------------------------------------------------------------------


G|------------------------------------------------------------------
U|-------7-9---7----------------------------------------------------
I|-9---9---------9-8-9-6---6----------------------------------------
T|---9--------------------------------------------------------------
A|------------------------------------------------------------------
R|------------------------------------------------------------------
 |
B|---------1-----------------3-----2---2-----------2---2-----------
A|-2---2---------2-4-------4---------------------------------------
S|---------------------4-4-----------------0---------------0-------
S|-----------------------------------------------------------------


G|------------------------------------------------------------------
U|------------------------------------------------------------------
I|------------------------------------------------------------------
T|------------------------------------------------------------------
A|------------------------------------------------------------------
R|------------------------------------------------------------------
 |
B|------2---2-----------2---2-------------------5---------------5---
A|------------------------------------------------------------------
S|--------------0---------------0---2---3---3-----------3---3-------
S|------------------------------------------------------------------


G|---------------------------------------------------------------6-
U|-----------------------------------------9-------------7-9-7-9---
I|-------------------------9-8-7-6-5---5-8-------------8-----------
T|-----------------------------------6-----------------------------
A|-----------------------------------------------------------------
R|-----------------------------------------------------------------
 |
B|---------5---------------5-4-3-2-1---1---------------------------
A|-------------------------------------------------4---4-----------
S|-3---3-----------3---3-------------------------------------------
S|-----------------------------------------------------------------


G|-7--------------------------------------------------------------
U|----------------------------------------------------------------
I|----------------------------------------------------------------
T|----------------------------------------------------------------
A|----------------------------------------------------------------
R|----------------------------------------------------------------
 |
B|----------------------------------------------------------------
A|-2---2-----------2---2-----------2---2--------------2---1---0---
S|----------------------------------------------------------------
S|----------------------------------------------------------------


Repeat from beginning.


Last modified: 12/10/2001

VGJam Tabs Final Fantasy III - "Magitek Factory ("Devil's Lab")"
Tabs database last modified Tuesday, 01-Nov-2016 19:14:53 UTC.
Copyright © 1999 - 2016 VideoGameJam.com. All rights reserved.