VGJam Tabs Final Fantasy III
Final Fantasy III
"Mog's theme" - Guitar tab
Platform(s):Super NES
Composed by:Nobuo Uematsu
Tabbed by:mike hurlock
Last modified:1999-05-06
Print it:Original file (.TXT)
Hear it:MIDI file
MOG's theme, transcribed by mike hurlock, intended for a metal sound
Mikey_the_Longhaired@prodigy.net or QTAK85B@prodigy.com

(intro)
----------------------------------------------------------------
-17-16-17-------------------------------------------------------
-----------15-16-----------------------(trill)------------------
--------------------13-14--------------11(13/11)----------------
--------------------------14----13-14------------14-------------
----------------------------------------------------------------

(lead 1) play twice                    
----------------------------------------------------------------
-------------17-------------16------------14-12-----------------
-------13-16-------13-14-16------13-14-16-------14-13-----------
-14-16-------------(triplet)-----(triplet)----------------------
----------------------------------------------------------------
----------------------------------------------------------------

                                |...palm mute........|
----------------------------------------------------------------
-------------------------------------------3--------------------
--------------------------------5-5--3--5-----5-----5-----------
-4-----4--2--------------------------------------4--------------
---------------5----3----1--------------------------------------
----------------------------------------------------------------


----------------------------------------------------------------
-------------17-------------16------------14-12-----------------
-------13-16-------13-14-16------13-14-16-------14-13-----------
-14-16-------------(triplet)-----(triplet)----------------------
----------------------------------------------------------------
----------------------------------------------------------------


----------------------------------------------------------------
----------------------------------------------------------------
-------------------------5--------------------------------------
-4-----4--2---------4-------------------------------------------
---------------5--------------------------------(5)~14----------
--------------------------------------------(first time only)---

(lead two)
----------------------------------------------------------------
----------16----------------------------------------------------
-18-16-18----18-15----------------------------15----------------
-------------------16----------16----------16-------------------
----------------------18-16-18----18-16-18----------------------
----------------------------------------------------------------


----------------------------------------------------------------
----------14----------------------------------------------------
-16-15-16----16-13----------------------------------------------
-------------------14-------------------------------------------
----------------------16-14~~~----------------------------------
----------------------------------------------------------------


----------------------------------------------------------------
----------16----------------------------------------------------
-18-16-18----18-15----------------------------16----------------
-------------------16----------16----------16-------------------
----------------------18-16-18----18-16-18----------------------
----------------------------------------------------------------

(ending harmony) two voicings
----------------------------------------------------------------
-19-----20-----19-17-16-17---19------21-------19----------------
-20-----21-----20-18-16-18---20------21-------20----------------
----------------------------------------------------------------
----------------------------------------------------------------
----------------------------------------------------------------

                             G7
----------------------------------------------------------------
-19-----21-----19-17-16-17---18---------------------------------
-20-----21-----20-18-16-18---16---------------------------------
-----------------------------17---------------------------------
----------------------------------------------------------------
----------------------------------------------------------------

VGJam Tabs Final Fantasy III - "Mog's theme"
Tabs database last modified Tuesday, 01-Nov-2016 19:14:53 UTC.
Copyright © 1999 - 2016 VideoGameJam.com. All rights reserved.