VGJam Tabs Final Fantasy III
Final Fantasy III
"Narshe" - Bass tab
Platform(s):Super NES
Composed by:Nobuo Uematsu
Tabbed by:Stuart Tucker
Last modified:2000-08-07
Print it:Original file (.TXT)
Hear it:MIDI file
Title: Narshe (Bassline)
Source: FF6(Japan) FF3(U.S.) (Super NES/Super Famicom)
Composer: Nobuo Uematsu
Tabbed by: Stuart Tucker (lordgallard@hotmail.com)

Standard Tuning, low to high, (E,A,D,G)

There isn't much to this one. They use an acoustic bass on the MIDI but I
think you'll find that a fretless sounds way better. Any comments? E-mail me.
I'm still looking for the MIDI for the first stage of Double Dragon II for NES.

Intro
G|--4--------4-------| 
D|-------------------| 
A|-------------------|
E|-------------------|

Riff 1 
G|--4---2-4----4---2------4---2-4----4---2---|
D|----5----------5---3------5----------5---3-|
A|-------------------------------------------|
E|-------------------------------------------|

Riff 2
G|--5--3-4-5----5--3-4------5--3-4-5----5--3-4---|
D|---------------------5-----------------------5-|
A|-----------------------------------------------|
E|-----------------------------------------------|

Intro x1
Riff 1 x1
Riff 2 x1
Riff 1 x1
Riff 2 x1
Riff 1 x1
Riff 2 x1
Riff 1 x1
Riff 2 x1

VGJam Tabs Final Fantasy III - "Narshe"
Tabs database last modified Tuesday, 01-Nov-2016 19:14:53 UTC.
Copyright © 1999 - 2016 VideoGameJam.com. All rights reserved.