VGJam Tabs Final Fantasy III
Final Fantasy III
"Opera House (Aria de Mezzo Caraterre)" - Guitar tab
Platform(s):Super NES
Composed by:Nobuo Uematsu
Tabbed by:Gianpiero Ciammaricone
Last modified:1999-05-06
Print it:Original file (.TXT)
Hear it:MIDI file
Aria di Mezzo Carratere
The Opera House - FINAL FANTASY III by SQUARESOFT
Original composition by: Nobuo Uematsu

Arrangement for two guitars by:
Gianpiero Ciammaricone
gianpiero@mindless.com
http://www.geocities.com/vienna/6619


E-|-----------------|-----------------|-------------------|
B-|-----------------|-----------------|-------------------|
G-|*----------------|-----------------|-------------------|
D-|*----------------|-----------------|-------------------|
A-|-----------------|-----------------|-------------------|
E-|-----------------|-----------------|-------------------|
  |                 |                 |                   |
  | |   |   |   |   | |   |   |   |   | |   |   |   |     |
E-|-----------------|-----------------|-------------------|
B-|-----3-----------|-----3-----------|-----1-0-3-1-------|
G-|*--2-------2-----|---2-------------|---0-----------2---|
D-|*4-----------4-2-|-4---------------|-2-----------4-----|
A-|-5-----------0---|-5---------------|-3-----------3-----|
E-|-----------------|-----------------|-------------------|

   |1-------------\   |2--------------\
                       |   |   |   |     |   |   |   |
E-|-----------------||-----------------|------------------|
B-|-----------------||-----------------|------------------|
G-|----------------*||-------------0---|-2-------------1--|
D-|----------------*||---------4-------|-----0-------4----|
A-|-----------------||-----------------|------------------|
E-|-----------------||-----------------|------------------|
  |                 ||                 |                  |
  | |   |   |   |   || |   |   |   |   | |   |   |   |    |
E-|-----------------||-----------------|------------------|
B-|-----------------||-----------------|-----3------------|
G-|-0--------------*||-0---------------|---2--------------|
D-|-----2----------*||-----------------|-4----------------|
A-|-3---------------||-3---------------|-5----------------|
E-|-----------------||-----------------|------------------|

    |   |   |   |     |   |   |   |     |   |   |   |
E-|-----------------|-----------------|-------------------|
B-|-----2-------0-2-|-3-----3-2---0---|-------------------|
G-|-2---------------|-----------------|-2--------------2--|
D-|-----------------|-----------------|-------------------|
A-|-----------------|-----------------|-------------------|
E-|-----------------|-----------------|-------------------|
  |                 |                 |                   |
  | |   |   |   |   | |   |   |   |   | |   |   |   |     |
E-|-----------------|-----------------|-------------------|
B-|-----2-----------|-----3-----------|-----2-------------|
G-|---2-------------|---4-------------|---2---------------|
D-|-4---------------|-5---------------|-4-----------------|
A-|-4---------------|-5---------------|-4-----------------|
E-|-----------------|-----------------|-------------------|


    |   |   |   |     |   |   |   |     |   |   |   |
E-|-----------------|-----------------|-------------------|
B-|-----------------|-----------------|-------------------|
G-|-2---0---0-----0-|-0---------------|-------------------|
D-|-------4---------|-----4-3-4-----4-|-4-----4-3---1-3---|
A-|-----------------|-----------------|-------------------|
E-|-----------------|-----------------|-------------------|
  |                 |                 |                   |
  | |   |   |   |   | |   |   |   |   | |   |   |   |     |
E-|-----------------|-----------------|-------------------|
B-|-----0-----------|-----2-----------|-------------------|
G-|---0-------------|---4-------------|-------6-4---------|
D-|-2---------------|-5---------------|---4-6-------3-----|
A-|-2---------------|-5---------------|-4-----------------|
E-|-----------------|-----------------|-4-----------------|


    |   |   |   |     |   |     |       |       |       |
E-|----------------||--------||--------------------------------|
B-|----------------||--------||--------------------------------|
G-|---------2------||-----0--||*2--------------------------1---|
D-|-4--------------||-4------||*--------0---------------4------|
A-|----------------||--------||--------------------------------|
E-|----------------||--------||--------------------------------|
  |                ||        ||                                |
  | |   |   |   |  || |   |  || |       |       |       |      |
E-|----------------||--------||--------------------------------|
B-|-----2---2------||--------||---------3---------------3------|
G-|---2---2-2------||--------||*----2-----2---------2-----2----|
D-|-4-------2------||--------||*4-----4-----4---4-----4-----4--|
A-|-4-------0------||--------||---5-----------5---5-----------5|
E-|----------------||--------||--------------------------------|


    |       |       |       |        |       |       |       |      
E-|--------------------------------|---------------------------------|
B-|---------2---------------0--2---|-3-----------3---2-------0-------|
G-|-2------------------------------|---------------------------------|
D-|--------------------------------|---------------------------------|
A-|--------------------------------|---------------------------------|
E-|--------------------------------|---------------------------------|
  |                                |                                 |
  | |       |       |       |      | |       |       |       |       |
E-|--------------------------------|---------------------------------|
B-|---------2---------------2------|---------3---------------3-------|
G-|-----2-----2---------2-----2----|-----4-----4---------4-----4-----|
D-|-4-----4-----4---4-----4-----4--|-5-----5-----5---5-----5-----5---|
A-|---4-----------4---4-----------4|---5-----------5---5-----------5-|
E-|--------------------------------|---------------------------------|


    |       |       |       |        |       |       |       |      
E-|--------------------------------|---------------------------------|
B-|--------------------------------|---------------------------------|
G-|-2--------------------------2---|-2-------0-------0-----------0---|
D-|--------------------------------|-------------4-------------------|
A-|--------------------------------|---------------------------------|
E-|--------------------------------|---------------------------------|
  |                                |                                 |
  | |       |       |       |      | |       |       |       |       |
E-|--------------------------------|---------0---------------0-------|
B-|---------2---------------2------|-----0-----0---------0-----0-----|
G-|-----2-----2---------2-----2----|-0-----0-----0---0-----0-----0---|
D-|-4-----4-----4---4-----4-----4--|---2-----------2---2-----------2-|
A-|---4-----------4---4-----------4|---------------------------------|
E-|--------------------------------|---------------------------------|

                                     |1-----------------------------
    |       |       |       |        |       |       |       |      
E-|--------------------------------|---------------------------------|
B-|--------------------------------|---------------------------------|
G-|-0------------------------------|---------------------------------|
D-|---------4---3---4----------4---|-4-----------4---3-------1---3---|
A-|--------------------------------|---------------------------------|
E-|--------------------------------|---------------------------------|
  |                                |                                 |
  | |       |       |       |      | |       |       |       |       |
E-|--------------------------------|---------------------------------|
B-|---------3---------------3------|---------2---------------2-------|
G-|-----2-----2---------2-----2----|-----1-----1---------1-----1-----|
D-|-4-----4-----4---4-----4-----4--|-4-----4-----4---3-----3-----3---|
A-|---5-----------5---5-----------5|---4-----------4---4-----------4-|
E-|--------------------------------|---------------------------------|

    -----------------------------\   |2----------------------------\
    |       |       |       |        |       |       |       |      
E-|--------------------------------||--------------------------------|
B-|--------------------------------||--------------------------------|
G-|-----------------2----------0--*||--------------------------------|
D-|-4-----------------------4-----*||4-----------4---2-------0---2---|
A-|--------------------------------||--------------------------------|
E-|--------------------------------||--------------------------------|
  |                                ||                                |
  | |       |       |       |      |||       |       |       |       |
E-|--------------------------------||--------------------------------|
B-|---------2---------------2------||--------2---------------2-------|
G-|-----2-----2---------2-----2---*||----1-----1---------2-----2-----|
D-|-4-----4-----4---2-----2-----2-*||4-----4-----4---2-----2-----2---|
A-|---4-----------4---4-----------4||--4-----------4---4-----------4-|
E-|--------------------------------||--------------------------------|


    |       |       |       |        |       |       |       |      
E-|--------------------------------|---------------------------------|
B-|--------------------------------|---------------------0---2---3---|
G-|--------------------------------|---------------------------------|
D-|-0------------------------------|---------------------------------|
A-|--------------------------------|---------------------------------|
E-|--------------------------------|---------------------------------|
  |                                |                                 |
  | |       |       |       |      | |       |       |       |       |
E-|---------2---------------2------|---------2-------2---------------|
B-|-------3---3-----------3---3----|-------3---3-----3---------------|
G-|-----4-------4-------4-------4--|-----4-------4---4---------------|
D-|---4-----------4---4-----------4|---4-----------4-4---------------|
A-|-2---------------2--------------|-2---------------2---------------|
E-|--------------------------------|---------------------------------|


    |   |   |   |     |   |   |   |     |   |   |   |
E-|-0-2-5-3-2---0---|-2-----------5---|-3-------------0---|
B-|-----------------|-----------0-----|-----3---2---3-----|
G-|-----------------|-----------------|-------------------|
D-|-----------------|-----------------|-------------------|
A-|-----------------|-----------------|-------------------|
E-|-----------------|-----------------|-------------------|
  |                 |                 |                   |
  | |   |   |   |   | |   |   |   |   | |   |   |   |     |
E-|-----------------|-----------------|-------------------|
B-|-2---0-----------|-----2---3---2-3-|-2-----------------|
G-|---------2---0---|-2---------------|---4---4-2-----2---|
D-|-----------------|-4---2---0-------|-----5-----2-4-----|
A-|-----------------|-------------4---|-2-------0---------|
E-|-----------------|-----------------|-------------------|


    |   |   |   |     |   |   |   |    
E-|-----------------|-0-2-5-3-2---0---|
B-|-3---------0-2-3-|-----------------|
G-|-----------------|-----------------|
D-|-----------------|-----------------|
A-|-----------------|-----------------|
E-|-----------------|-----------------|
  |                 |                 |                  
  | |   |   |   |   | |   |   |   |   |
E-|-2---------------|-----------------|
B-|---3-2-----------|-----------------|
G-|-------4---------|-0---------------|
D-|-4-------4-------|---4-2-0---0-2---|
A-|-2---------5-4-2-|---------4-----4-|
E-|-----------------|-----------------|


    |       |       |       |        |       |       |       |      
E-|-2------------------------------|---------------------------------|
B-|-3------------------------------|-3-------------------------------|
G-|-0------------------------------|-4-------------------------------|
D-|---------4-------2-------0------|-5-------4-------2-------0-------|
A-|-2------------------------------|---------------------------------|
E-|--------------------------------|-3-------------------------------|
  |                                |                                 |
  | |       |       |       |      | |       |       |       |       |
E-|--------------------------------|---------------------------------|
B-|-------3-------3-------3-------3|-------3-------3-------3-------3-|
G-|-----2-------2-------2-------2--|-----2-------2-------2-------2---|
D-|---4-------4-------4-------4----|---4-------4-------4-------4-----|
A-|-5-------5-------5-------5------|-5-------5-------5-------5-------|
E-|--------------------------------|---------------------------------|


    |       |       |       |        |       |       |       |      
E-|--------------------------------|-2-------------------------------|
B-|-2------------------------------|-3-------------------------------|
G-|-2------------------------------|-4-------------------------------|
D-|-2-------5-------4-------2------|-4-------------------------------|
A-|-0------------------------------|-2-------------------------------|
E-|--------------------------------|---------------------------------|
  |                                |                                 |
  | |       |       |       |      | |       |       |       |       |
E-|-------0-------0-------0-------0|-------2-------2-------2-------2-|
B-|-----2-------2-------2-------2--|-----2-------2-------2-------2---|
G-|---2-------2-------2-------2----|---3-------3-------3-------3-----|
D-|-2-------2-------2-------2------|-4-------4-------4-------4-------|
A-|--------------------------------|---------------------------------|
E-|--------------------------------|---------------------------------|


    |       |       |       |        |       |       |       |      
E-|-2------------------------------|---------------------------------|
B-|-3------------------------------|-3-------------------------------|
G-|-0------------------------------|-4-------------------------------|
D-|---------4-------2-------0------|-5-------4-------2-------0-------|
A-|-2------------------------------|---------------------------------|
E-|--------------------------------|-3-------------------------------|
  |                                |                                 |
  | |       |       |       |      | |       |       |       |       |
E-|--------------------------------|---------------------------------|
B-|-------3-------3-------3-------3|-------3-------3-------3-------3-|
G-|-----2-------2-------2-------2--|-----2-------2-------2-------2---|
D-|---4-------4-------4-------4----|---4-------4-------4-------4-----|
A-|-5-------5-------5-------5------|-5-------5-------5-------5-------|
E-|--------------------------------|---------------------------------|



    |       |       |       |        |       |       |       |      
E-|-0------------------------------|---------------------------------|
B-|-0---------------2--------------|-3-------------------------------|
G-|-0---------------2--------------|-2-------------------------------|
D-|---------4-------2-------0------|-4-------------------------------|
A-|-----------------0--------------|-5-------------------------------|
E-|-0------------------------------|---------------------------------|
  |                                |                                 |
  | |       |       |       |      | |       |       |       |       |
E-|-------0-------0-------0-------0|---------------------------------|
B-|-----0-------0-------2-------2--|-------3-------3-------3-------3-|
G-|---0-------0-------2-------2----|-----2-------2-------2-------2---|
D-|-2-------2-------2-------2------|---4-------4-------4-------4-----|
A-|--------------------------------|-5-------5-------5-------5-------|
E-|--------------------------------|---------------------------------|


    |       |       |       |         |       |       |       |      
E-|--------------------------------||---------------------------------|
B-|--------------------------------||---------------------------------|
G-|----------------------------0---||*2---------------------------1---|
D-|-------------------------4------||*--------0---------------4-------|
A-|--------------------------------||---------------------------------|
E-|--------------------------------||---------------------------------|
  |                                ||                                 |
  | |       |       |       |      || |       |       |       |       |
E-|---------2---------------2------||---------------------------------|
B-|-------3---3-----------3---3----||---------3---------------3-------|
G-|-----2-------2-------2-------2--||*----2-----2---------2-----2-----|
D-|---4-----------4---4-----------4||*4-----4-----4---4-----4-----4---|
A-|-5---------------5--------------||---5-----------5---5-----------5-|
E-|--------------------------------||---------------------------------|


    |       |       |       |        |       |       |       |      
E-|--------------------------------|---------------------------------|
B-|---------2---------------0--2---|-3-----------3---2-------0-------|
G-|-2------------------------------|---------------------------------|
D-|--------------------------------|---------------------------------|
A-|--------------------------------|---------------------------------|
E-|--------------------------------|---------------------------------|
  |                                |                                 |
  | |       |       |       |      | |       |       |       |       |
E-|--------------------------------|---------------------------------|
B-|---------2---------------2------|---------3---------------3-------|
G-|-----2-----2---------2-----2----|-----4-----4---------4-----4-----|
D-|-4-----4-----4---4-----4-----4--|-5-----5-----5---5-----5-----5---|
A-|---4-----------4---4-----------4|---5-----------5---5-----------5-|
E-|--------------------------------|---------------------------------|


    |       |       |       |        |       |       |       |      
E-|--------------------------------|---------------------------------|
B-|--------------------------------|---------------------------------|
G-|-2--------------------------2---|-2-------0-------0-----------0---|
D-|--------------------------------|-------------4-------------------|
A-|--------------------------------|---------------------------------|
E-|--------------------------------|---------------------------------|
  |                                |                                 |
  | |       |       |       |      | |       |       |       |       |
E-|--------------------------------|---------0---------------0-------|
B-|---------2---------------2------|-----0-----0---------0-----0-----|
G-|-----2-----2---------2-----2----|-0-----0-----0---0-----0-----0---|
D-|-4-----4-----4---4-----4-----4--|---2-----------2---2-----------2-|
A-|---4-----------4---4-----------4|---------------------------------|
E-|--------------------------------|---------------------------------|

                                     |1-----------------------------
    |       |       |       |        |       |       |       |      
E-|--------------------------------|---------------------------------|
B-|--------------------------------|---------------------------------|
G-|-0------------------------------|---------------------------------|
D-|---------4---3---4----------4---|-4-----------4---3-------1---3---|
A-|--------------------------------|---------------------------------|
E-|--------------------------------|---------------------------------|
  |                                |                                 |
  | |       |       |       |      | |       |       |       |       |
E-|--------------------------------|---------------------------------|
B-|---------3---------------3------|---------2---------------2-------|
G-|-----2-----2---------2-----2----|-----1-----1---------1-----1-----|
D-|-4-----4-----4---4-----4-----4--|-4-----4-----4---3-----3-----3---|
A-|---5-----------5---5-----------5|---4-----------4---4-----------4-|
E-|--------------------------------|---------------------------------|

    -----------------------------\   |2----------------------------\
    |       |       |       |        |       |       |       |      
E-|--------------------------------||--------------------------------|
B-|--------------------------------||--------------------------------|
G-|-----------------2----------0--*||--------------------------------|
D-|-4-----------------------4-----*||4-----------4---2-------0---2---|
A-|--------------------------------||--------------------------------|
E-|--------------------------------||--------------------------------|
  |                                ||                                |
  | |       |       |       |      |||       |       |       |       |
E-|--------------------------------||--------------------------------|
B-|---------2---------------2------||--------2---------------2-------|
G-|-----2-----2---------2-----2----||----1-----1---------2-----2-----|
D-|-4-----4-----4---2-----2-----2--||4-----4-----4---2-----2-----2---|
A-|---4-----------4---4-----------4||--4-----------4---4-----------4-|
E-|--------------------------------||--------------------------------|


    |       |       |       |        |       |       |       |      
E-|-2------------------------------|---------------------------------|
B-|-3------------------------------|-3-------------------------------|
G-|-0------------------------------|-4-------------------------------|
D-|---------4-------2-------0------|-5-------4-------2-------0-------|
A-|-2------------------------------|---------------------------------|
E-|--------------------------------|-3-------------------------------|
  |                                |                                 |
  | |       |       |       |      | |       |       |       |       |
E-|--------------------------------|---------------------------------|
B-|-------3-------3-------3-------3|-------3-------3-------3-------3-|
G-|-----2-------2-------2-------2--|-----2-------2-------2-------2---|
D-|---4-------4-------4-------4----|---4-------4-------4-------4-----|
A-|-5-------5-------5-------5------|-5-------5-------5-------5-------|
E-|--------------------------------|---------------------------------|


    |       |       |       |        |       |       |       |      
E-|--------------------------------|-2-------------------------------|
B-|-2------------------------------|-3-------------------------------|
G-|-2------------------------------|-4-------------------------------|
D-|-2-------5-------4-------2------|-4-------------------------------|
A-|-0------------------------------|-2-------------------------------|
E-|--------------------------------|---------------------------------|
  |                                |                                 |
  | |       |       |       |      | |       |       |       |       |
E-|-------0-------0-------0-------0|-------2-------2-------2-------2-|
B-|-----2-------2-------2-------2--|-----2-------2-------2-------2---|
G-|---2-------2-------2-------2----|---3-------3-------3-------3-----|
D-|-2-------2-------2-------2------|-4-------4-------4-------4-------|
A-|--------------------------------|---------------------------------|
E-|--------------------------------|---------------------------------|


    |       |       |       |        |       |       |       |      
E-|-2------------------------------|---------------------------------|
B-|-3------------------------------|-3-------------------------------|
G-|-0------------------------------|-4-------------------------------|
D-|---------4-------2-------0------|-5-------4-------2-------0-------|
A-|-2------------------------------|---------------------------------|
E-|--------------------------------|-3-------------------------------|
  |                                |                                 |
  | |       |       |       |      | |       |       |       |       |
E-|--------------------------------|---------------------------------|
B-|-------3-------3-------3-------3|-------3-------3-------3-------3-|
G-|-----2-------2-------2-------2--|-----2-------2-------2-------2---|
D-|---4-------4-------4-------4----|---4-------4-------4-------4-----|
A-|-5-------5-------5-------5------|-5-------5-------5-------5-------|
E-|--------------------------------|---------------------------------|



    |       |       |       |        |       |       |       |      
E-|-0------------------------------|--------------------------------||
B-|-0---------------2--------------|-3------------------------------||
G-|-0---------------2--------------|-2------------------------------||
D-|---------4-------2-------0------|-4------------------------------||
A-|-----------------0--------------|-5------------------------------||
E-|-0------------------------------|--------------------------------||
  |                                |                                ||
  | |       |       |       |      | |       |       |       |      ||
E-|-------0-------0-------0-------0|---------2---------------3------||
B-|-----0-------0-------2-------2--|-------3---3-----------2--------||
G-|---0-------0-------2-------2----|-----2-------2-------2----------||
D-|-2-------2-------2-------2------|---4-----------4---4------------||
A-|--------------------------------|-5---------------5--------------||
E-|--------------------------------|--------------------------------||
                                     Slow Down

VGJam Tabs Final Fantasy III - "Opera House (Aria de Mezzo Caraterre)"
Tabs database last modified Tuesday, 01-Nov-2016 19:14:53 UTC.
Copyright © 1999 - 2016 VideoGameJam.com. All rights reserved.