VGJam Tabs Final Fantasy III
Final Fantasy III
"The Phantom Train" - Guitar tab
Platform(s):Super NES
Composed by:Nobuo Uematsu
Tabbed by:Thomas McManus
Last modified:1999-12-20
Print it:Original file (.TXT)
Hear it:MIDI file
Game: Final Fantasy VI (3 U.S.)
Song: The Phantom Train
Composer: Nobuo Uematsu
Tabbed by: Thomas McManus (tom0015@hotmail.com)


e------------------------------------------------------
B------------------------------------------------------
G---0---------------0----------------0-----------------
D-2---3-2-0---2-1-2---3-2----2--2--2---3-2-1-0---0-----
A-----------3-------------2--------------------4-------
E------------------------------------------------------

e---------------------------------------------------------------
B---------------------------------------------------------------
G---0-----------0---------------0-2-3-3-3-3-3-3-3-3-3-3-2-0-----
D-2---3-2-0---2---3-2-----1-2-4-----------------------------2---
A-----------3---------2-4---------------------------------------
E---------------------------------------------------------------

e------------------
B------------------
G------------------
D-----1------------
A-2-4--------------
E------------------

e---------------------------------------------------------------
B---------------------------------------------------------------
G---0-----------0---------------0-2-3-3-3-3-3-3-3-3-3-3-2-0-----
D-2---3-2-0---2---3-2-----1-2-4-----------------------------2---
A-----------3---------2-4---------------------------------------
E---------------------------------------------------------------

e---------------------------------------------------------------
B-5-4-3-2-1~-------0---0---0-5-3-1-5-4-3-2-1~-------0---0---0-5-
G------------0-2-3---3---0--------------------0-2-3---3---------
D---------------------------------------------------------4-----
A---------------------------------------------------------------
E---------------------------------------------------------------


then repeat from beginning


VGJam Tabs Final Fantasy III - "The Phantom Train"
Tabs database last modified Tuesday, 01-Nov-2016 19:14:53 UTC.
Copyright © 1999 - 2016 VideoGameJam.com. All rights reserved.