VGJam Tabs Final Fantasy III
Final Fantasy III
"Searching for Friends" - Guitar tab
Platform(s):Super NES
Composed by:Nobuo Uematsu
Tabbed by:Thomas McManus
Last modified:2000-03-22
Print it:Original file (.TXT)
Hear it:MIDI file
Song: Searching Friends
Game: Final Fantasy VI
Composer: Nobuo Uematsu
Tabbed by: Thomas McManus (tom0015@hotmail.com)

                     *
e--------------------|-5--8-7-5----------------------5-8-8/10-8-7---5-
B-----------1~~--3~~-|----------8-----5-5-------5~~---------------8---
G-2~~--4~~-----------|------------5-7-----7-5-7-----------------------
D--------------------|------------------------------------------------
A--------------------|------------------------------------------------
E--------------------|------------------------------------------------

e-8-7-4-5~~--5--8-7-5----------------------5-8-8/10-8-7---5-8-7-4-5~~-
B---------------------8-----5-5-------5~~---------------8-------------
G-----------------------5-7-----7-5-7---------------------------------
D---------------------------------------------------------------------
A---------------------------------------------------------------------
E---------------------------------------------------------------------

e--------------------------1-5-1-3-1-0-1-3~~--------------------------
B---1---0-------0~-3-1~~~------------------------1---0-------0~-3-2~~-
G-2---2---2-0-2--------------------------------2---2---2-0-2----------
D---------------------------------------------------------------------
A---------------------------------------------------------------------
E---------------------------------------------------------------------

e-12~-12-10-8-5~~--3-5-6-11-10-8-6-5~~~~-----
B--------------------------------------------
G--------------------------------------------
D--------------------------------------------
A--------------------------------------------
E--------------------------------------------

Play all the way through once, then continue repeating from the *
VGJam Tabs Final Fantasy III - "Searching for Friends"
Tabs database last modified Tuesday, 01-Nov-2016 19:14:53 UTC.
Copyright © 1999 - 2016 VideoGameJam.com. All rights reserved.