VGJam Tabs Final Fantasy III
Final Fantasy III
"Searching for Friends" - Bass tab
Platform(s):Super NES
Composed by:Nobuo Uematsu
Tabbed by:Alexandre Beaupré
Last modified:2001-10-16
Print it:Original file (.TXT)
Hear it:MIDI file
Song: Searching Friends (Bass)
Game: Final Fantasy VI
Composer: Nobuo Uematsu
Tabbed by: Alexandre Beaupré (dv8xfireman@hotmail.com)


INTRO (x1)

G|-2~-------2~-----2~--------------
D|--------2-------------2----------
A|------------------------0~-------
E|-----------------------------9/5-


PART A (x2)

G|2------------------------7---------1-
D|---5-3--0-2-------3--3-----------4---
A|------------5/3--------5---5-7-------
E|-------------------------------------

					 1st   2nd
G|2----------------/9-8-7-------4-1-2---|-7\2-|-----|
D|---5-3--025-----------------2---------|-----|-2---|
A|-----------3/5-7--------3/5-----------|-----|---0-|
E|--------------------------------------|-----|-----|


PART B (x1)

G|----------10-----------------------9---------9-------------7-------------5-5---5-------------
D|------10------10----------------9-----9-7-7----7--------7-----7-5-5--5-5-----5----5-7-7--5-5-
A|-8-8-------------8-8--8-8--7-7-------------------7-5-5---------------------------------------
E|---------------------------------------------------------------------------------------------

G|----------10-----------------------9---------9-------------7----------------------8--7-5-5----------
D|------10------10----------------9-----9-7-7----7--------7-----7-8-8--8-8-------8------------5-5-----
A|-8-8-------------8-8--8-8--7-7-------------------7-5-5--------------------6-6-------------------7-7-
E|----------------------------------------------------------------------------------------------------

G|----9----------------------9-------9--------9---
D|-9-----9----------------9---------------------6-
A|---------7-7--7-7--7-7-------9-5/7---7/8-10-----
E|------------------------------------------------

Back to PART A

VGJam Tabs Final Fantasy III - "Searching for Friends"
Tabs database last modified Tuesday, 01-Nov-2016 19:14:53 UTC.
Copyright © 1999 - 2016 VideoGameJam.com. All rights reserved.