VGJam Tabs Final Fantasy III
Final Fantasy III
"Shadow's theme" - Guitar tab
Platform(s):Super NES
Composed by:Nobuo Uematsu
Tabbed by:Deezer
Last modified:1999-08-16
Print it:Original file (.TXT)
Hear it:MIDI file
#----------------------------------PLEASE NOTE---------------------------------#
#This file is the author's own work and represents their interpretation of the #
#song. You may only use this file for private study, scholarship, or research. #
#------------------------------------------------------------------------------#

Final Fantasy III (Super NES) / Final Fantasy VI (Super Famicom)
"Shadow's theme"

Originally composed by: Nobuo Uematsu
------------------------------------------------------------------------------
Tabbed by: Deezer (deezer@usa.net)
For http://www.kontek.net/vgjam/
------------------------------------------------------------------------------

Standard Tuning - (low to high) EADGBe


Some sitar-like instrument plays this before the lead repeats:
|--------------------|
|--------------------|
|--------------------|
|--2--------2--2--2--|
|--------------------|
|--------------------| x2

Lead:

------19--------19--17--15--------------15----------
--17------------------------19--17--19------15--17--
----------------------------------------------------
----------------------------------------------------
----------------------------------------------------
----------------------------------------------------

------19--------19--17--15--------------------------
--17------------------------19--17--19------15--17--
----------------------------------------16----------
----------------------------------------------------
----------------------------------------------------
----------------------------------------------------

--19--22--------19-21-22--21------------22--21--19--21------17--19--
--------------------------------------------------------19----------
--------------------------------------------------------------------
--------------------------------------------------------------------
--------------------------------------------------------------------
--------------------------------------------------------------------

------19--------19--17--15--------------15----------
--17------------------------19--17--19------15--17--
----------------------------------------------------
----------------------------------------------------
----------------------------------------------------
----------------------------------------------------

Lead guitar repeats from beginning.

Rhythm guitar:

  Em
--------------------
--5----5----5----5--
--4----4----4----4--
--5----5----5----5--
--------------------
--------------------

   Em                            C    B
|--------------------------------3----2--|
|--5----5----5----5----5----5----5----4--|
|--4----4----4----4----4----4----5----4--|
|--5----5----5----5----5----5------------|
|----------------------------------------|
|----------------------------------------| x2

  Em                  G5        A
----------------------3----3----0----0--
--5----5----5----5----3----3----2----2--
--4----4----4----4----0----0----2----2--
--5----5----5----5----------------------
----------------------------------------
----------------------------------------

  G5   F#m  B         Em        C    B
--3----2----2----2--------------3----2--
--3----2----4----4----5----5----5----4--
--0----2----4----4----4----4----5----4--
----------------------5----5------------
----------------------------------------
----------------------------------------

Rhythm guitar repeats from beginning.


Last revised: 8/16/99

VGJam Tabs Final Fantasy III - "Shadow's theme"
Tabs database last modified Tuesday, 01-Nov-2016 19:14:53 UTC.
Copyright © 1999 - 2016 VideoGameJam.com. All rights reserved.