VGJam Tabs Final Fantasy III
Final Fantasy III
"Shadow's theme" - Bass tab
Platform(s):Super NES
Composed by:Nobuo Uematsu
Tabbed by:Midgard Serpent
Last modified:2003-04-21
Print it:Original file (.TXT)
Hear it:MIDI file
Game: Final Fantasy III/VI
Platform: SNES
Name: Shadow's Theme
Composed by: Nobuo Uematsu
Tabbed by: Midgard Serpent

NOTE: Listen to the midi for proper timing

Bass Solo Intro
G|------9--9-9-9----9--9-9-9--------|
D|----------------------------------|
A|----------------------------------|
E|----------------------------------|

Riff 1
G|---------0----------------------------0------|
D|-2---2-4------0-2----2-2----2---2-0-----4----|
A|----------3-2-----------------------3-----2--|
E|---------------------------------------------|

Riff 2
G|---------7-6-2-4-0---0-1-2---2-0-0---2-4---------4--4-5--|
D|-2---2-2--------------------------4-------4-4-2-2--------|
A|---------------------------------------------------------|
E|---------------------------------------------------------|

Riff 3
G|4--------7-6-4------------------|
D|-4-0-2------------2--------0--2-|
A|-------------------------2------|
E|--------------------------------|

Bass Solo Intro x1
Riff 1		x1
Riff 2		x1
Riff 3		x1
*Repeat Starting at Riff 1

VGJam Tabs Final Fantasy III - "Shadow's theme"
Tabs database last modified Tuesday, 01-Nov-2016 19:14:53 UTC.
Copyright © 1999 - 2016 VideoGameJam.com. All rights reserved.