VGJam Tabs Final Fantasy III
Final Fantasy III
"Slam Shuffle" - Guitar tab
Platform(s):Super NES
Composed by:Nobuo Uematsu
Tabbed by:mike hurlock
Last modified:2000-04-01
Print it:Original file (.TXT)
Hear it:MIDI file
SLAM SHUFFLE, transcribed by mike hurlock. intended for a metal sound.
Mikey_the_Longhaired@prodigy.net or QTAK85B@prodigy.com

(intro) rythem
A minor
----------------------------------------------------------------
----------------------------------------------------------------
----------------------------------------------------------------
-2--2--------2--2--1--2--2--2--------2--2--1--2-----------------
-0--0--3--2--0--0--------0--0--3--3--0--0-----------------------
----------------------------------------------------------------

(lead 1) played with intro
----------------------------------------------------------------
------10--------------------------------------------------------
-------------8~----9-11--9-11-12-11--9--8-----------------------
-7----------------------------------------10--9-----------------
----------------------------------------------------------------
----------------------------------------------------------------


----------------------------------------------------------------
----------------------------------------------------------------
----------8--9~-------------------------8--9~-------------------
-7~-------------------6--7-----9-10-----------------------------
----------------------------------------------------------------
----------------------------------------------------------------


----------------------------------------------------------------
------10--------------------------------------------------------
-------------8~----9-11--9-11-12-11--9--8-----------------------
-7~---------------------------------------10--9-----------------
----------------------------------------------------------------
----------------------------------------------------------------


----------------------------------------------------------------
----------------------------------------------------------------
----------------------------------------------------------------
-7~-------9-10--------6--7-----9-10-----9--7~-------------------
----------------------------------------------------------------
----------------------------------------------------------------

(lead 2) intro rythem moves up 3 frets
C minor
|--------------------------------------------------------------|
|--------------------------------------------------------------|
|--------------------------------------------------------------|
|------------------4--5--------------------4--5----------------|
|3--3--6--5--3--3--------3--3--6--5--3--3----------------------|
|--------------------------------------------------------------|
|                                                              |
|--------------------------------------------------------------|
|-----13-------------------------------------------------------|
|-----------11~---12-14-12-14-15-14-12-11----------------------|
|10~--------------------------------------13-12----------------|
|--------------------------------------------------------------|
|--------------------------------------------------------------|


|--------------------------------------------------------------|
|--------------------------------------------------------------|
|--------------------------------------------------------------|
|------------------4--5--------------------4--5----------------|
|3--3--6--5--3--3--------3--3--6--5--3--3----------------------|
|--------------------------------------------------------------|
|                                                              |
|--------------------------------------------------------------|
|--------------------------------------------------------------|
|--------11-12-------------------------11-12~------------------|
|10~------------------9-10-----12-13---------------------------|
|--------------------------------------------------------------|
|--------------------------------------------------------------|


(lead 1) played with rythem back down 3 frets again
----------------------------------------------------------------
------10--------------------------------------------------------
-------------8~----9-11--9-11-12-11--9--8-----------------------
-7----------------------------------------10--9-----------------
----------------------------------------------------------------
----------------------------------------------------------------

----------------------------------------------------------------
----------------------------------------------------------------
----------8--9~-------------------------8--9~-------------------
-7~-------------------6--7-----9-10-----------------------------
----------------------------------------------------------------
----------------------------------------------------------------

(ending blues)
E7
----------------------------------------------------------------
----------------------------------------------------------------
----------------------------------------------------------------
-------7--5--6--------------7--5--6--------6-----6--------------
-7--7--7--5-----7--------7--7--5-----7-----7-----7--------------
-0--0-----------0--0--0--0-----------0--0-----0-----------------

----------------------------------------------------------------
----------------------------------------------------------------
----------------------------------------------------------------
-------7--5--6--------------7--5--6----------4-5-6--------------
-7--7--7--5-----7--------7--7--5-----7--------------------------
-0--0-----------0--0--0--0-----------0--0--0---------------------

A7
----------------------------------------------------------------
-------7--------------------7-----------------------------------
-------7--5--6--------------7--5--6--------6-----6--------------
-7--7-----5--5--7--------7-----5--5--7-----7-----7--------------
-0--0-----------0--0--0--0-----------0--0-----0-----------------
----------------------------------------------------------------


--------------------------------------------------|------------
-------7------------------------------------------|------------
-------7--5--6------------------------------------|------------
-7--7-----5--5--7--------7-6-5--------------------|-2----------
-0--0-----------0--0--0--------7-6-5-3-------3-2-1|-0----------
--------------------------------------------------|------------




VGJam Tabs Final Fantasy III - "Slam Shuffle"
Tabs database last modified Tuesday, 01-Nov-2016 19:14:53 UTC.
Copyright © 1999 - 2016 VideoGameJam.com. All rights reserved.