VGJam Tabs Dark Cloud
Dark Cloud
"Matataki Village" - Guitar tab
Platform(s):PlayStation 2
Composed by:Tomohito Nishiura
Tabbed by:Deezer
Last modified:2004-07-02
Print it:Original file (.TXT)
Hear it:MIDI file
#----------------------------------PLEASE NOTE---------------------------------#
#This file is the author's own work and represents their interpretation of the #
#song. You may only use this file for private study, scholarship, or research. #
#------------------------------------------------------------------------------#


Dark Cloud (PlayStation 2)
"Matataki Village"

Originally composed by: Tomohito Nishiura
------------------------------------------------------------------------------
Tabbed by: Deezer (vgjam.staff AT gmail DOT com)
For http://www.kontek.net/vgjam/
------------------------------------------------------------------------------

Standard tuning: (low to high) EADGBe


Background guitar:
==================

|-------------------------------------------------|
|-------3--1--------3--1--------3--1---------3--1-|
|-------------------------------------------------|
|----3-----------3-----------3------------3-------|
|-1-----------1-----------1------------1----------|
|-------------------------------------------------| x2
 (lead enters on repeat)

-----------------------------------------------
-----------------------------------------------
-------2--3-------2--3--------2--3--------2--3-
----0----------0-----------0-----------0-------
-----------------------------------------------
-3-----------3----------3-----------3----------

-------------------------------------------------
-------3--1--------3--1--------3--1---------3--1-
-------------------------------------------------
----3-----------3-----------3------------3-------
-1-----------1-----------1------------1----------
-------------------------------------------------

-----------------------------------------------
-----------------------------------------------
-------2--3-------2--3--------2--3--------2--3-
----0----------0-----------0-----------0-------
-----------------------------------------------
-3-----------3----------3-----------3----------

------------------------------------------------
-------3--4--------3--4--------3--4--------3--4-
----0-----------0-----------0-----------0-------
------------------------------------------------
-3-----------2-----------1-----------0----------
------------------------------------------------

-------------------------------------------1----
-------3--4-----------------1-----1-----1-----1-
----0-----------0--1--3--------2----------------
-------------------------3-----------3----------
------------------------------------------------
-4-----------3----------------------------------


Lead:
=====

-18------17h18p17-17----------------------17h18p17-17-------------
----------------------18-------------------------------18---------
--------------------------19--17--19-----------------------19--17-
------------------------------------------------------------------
------------------------------------------------------------------
------------------------------------------------------------------

---------17h18p17-17--------------------------------17-
----------------------18------------------------18-----
-19-----------------------19--17--17-------------------
-------------------------------------------------------
-------------------------------------------------------
-------------------------------------------------------

-18------17h18p17-17----------------------17h18p17-17-------------
----------------------18-------------------------------18---------
--------------------------19--17--19-----------------------19--17-
------------------------------------------------------------------
------------------------------------------------------------------
------------------------------------------------------------------

---------17h18p17-17-----------------------------------
----------------------18----------20-------------------
-19-----------------------19--17----------------17--19-
-------------------------------------------------------
-------------------------------------------------------
-------------------------------------------------------

------------------------------------------------------------------
---------15h16p15-15----------------------15h16p15-15-------------
-20-------------------17--17--16--17-------------------17--17--16-
------------------------------------------------------------------
------------------------------------------------------------------
------------------------------------------------------------------

------------------------------------------------17-
--------------------------------------------18-----
-17------17h18p17-17--15---------------------------
---------------------------15-16--15---------------
---------------------------------------------------
---------------------------------------------------

Repeat as necessary.


Revisions:
 07/02/2004 - Fixed an error in the first bar that was also in the
               third bar because of copy-and-paste.
 04/14/2003 - First draft.

VGJam Tabs Dark Cloud - "Matataki Village"
Tabs database last modified Tuesday, 01-Nov-2016 19:14:53 UTC.
Copyright © 1999 - 2016 VideoGameJam.com. All rights reserved.