VGJam Tabs Final Fantasy III
Final Fantasy III
"Strago's theme" - Guitar, Bass tab
Platform(s):Super NES
Composed by:Nobuo Uematsu
Tabbed by:Ryan C. Reynolds
Last modified:2000-03-11
Print it:Original file (.TXT)
Hear it:MIDI file
#----------------------------------PLEASE NOTE--------------------------------#
#This file is the author's own work and represents their interpretation of the#
#song. You may only use this file for private study, scholarship, or research.#
#-----------------------------------------------------------------------------#
#-- File created with Instab - http://www.pconline.com/~smcarey/instab.html --#
#-----------------------------------------------------------------------------#

Author/Artist: FF3
Title: Strago's theme
Transcribed by: Ryan C. Reynolds
Email: morbol@aol.com

Here is the theme music for Strago. I included both guitar
and bass. 

Repeat Riff A twice:

---------------------------|--------------------------------------------------
---------------------------|--------------------------------------------------
-7-6-7----------3-2-3------|--------------------------------------------------
---------------------------|-5-4-5--------------------------------------------
---------------------------|--------------------------------------------------
---------------------------|--------------------------------------------------


-----7---6----------7---6--|-----7---6-----------7---6------------------------
-5--------------5----------|-5---------------5--------------------------------
---------------------------|-------------5------------------------------------
---------------------------|--------------------------------------------------

 Next play riff B twice:

---------------------------------|--------------------------------------------
-------------6-----------8-------|--------------------------------------------
-------5-7-------8---7-------7---|-8--10-8-7~---------------------------------
-5-7-8---------------------------|--------------------------------------------
---------------------------------|--------------------------------------------
---------------------------------|--------------------------------------------


-----7---6-----------7---6-------|-----7---6-----------7---6------------------
-5---------------5---------------|-5---------------5--------------------------
---------------------------------|-------------5------------------------------
---------------------------------|--------------------------------------------


---------------------------------|--------------------------------------------
---------------------------------|--------------------------------------------
-7-5---7-5-----5-----------------|--------------------------------------------
-----8-------7---8---7---5---4---|-5~-----------------------------------------
---------------------------------|--------------------------------------------
---------------------------------|--------------------------------------------


-----7---------------------------|-----7---6-----------7---6------------------
-5-------------------8-----------|-5---------------5--------------------------
---------7-------5-------4-------|-------------5------------------------------
---------------------------------|--------------------------------------------

 Then play riff C once:

---------------------------------|--------------------------------------------
---------------------------------|--------------------------------------------
-------7-8-7-------7-------------|--------------------------------------------
-6-8-10-----10-9-10-10-8-10-9-6-5|-6~-----------------------------------------
---------------------------------|--------------------------------------------
---------------------------------|--------------------------------------------


-----5---4-----------5---4-------|-----5---4-----------5---4------------------
-3---------------3---------------|-3---------------3--------------------------
---------------------------------|-------------3------------------------------
---------------------------------|--------------------------------------------



---------------------------------|--------------------------------------------
---------------------------------|--------------------------------------------
-----7-9-10-9-7-6-7-9-7-5-7-6----|--------------------------------------------
-8-10-------------------------8-7|-8~-----------------------------------------
---------------------------------|--------------------------------------------
---------------------------------|--------------------------------------------


-----7---6-----------7---6-------|-----7---6-----------7---6------------------
-5---------------5---------------|-5---------------5--------------------------
---------------------------------|-------------5------------------------------
---------------------------------|--------------------------------------------



---------------------------------|--------------------------------------------
---------------------------------|-----------------6--------------------------
----------------5----------------|-3-------6---3------------------------------
-3------6---3--------------------|--------------------------------------------
---------------------------------|--------------------------------------------
---------------------------------|--------------------------------------------


---------------------------------|--------------------------------------------
-6-----------6---5---------------|-------------1---3-----------3--------------
---------------------------------|-1---3---4----------------------------------
---------------------------------|--------------------------------------------



---------------------------------|--------------------------------------------
---------6-----------------------|--------------------------------------------
-5---6-8-----8---6---5-------6---|-5^-----------------------------------------
-------------------------8-------|--------------------------------------------
---------------------------------|--------------------------------------------
---------------------------------|--------------------------------------------


---------------------------------|-----9---4---2---1--------------------------
-1-------------------------------|-2-----------------------2------------------
---------------------------------|--------------------------------------------
---------------------------------|--------------------------------------------

VGJam Tabs Final Fantasy III - "Strago's theme"
Tabs database last modified Tuesday, 01-Nov-2016 19:14:53 UTC.
Copyright © 1999 - 2016 VideoGameJam.com. All rights reserved.