VGJam Tabs Final Fantasy III
Final Fantasy III
"Techno de Chocobo" - Guitar tab
Platform(s):Super NES
Composed by:Nobuo Uematsu
Tabbed by:DarkOrk
Last modified:1999-09-02
Print it:Original file (.TXT)
Hear it:MIDI file
#----------------------------------PLEASE NOTE--------------------------------#
#This file is the author's own work and represents their interpretation of the#
#song. You may only use this file for private study, scholarship, or research.#
#-----------------------------------------------------------------------------#

Final Fantasy III (Super NES) / Final Fantasy VI (Super Famicom)
"Chocobo theme"

Originally composed by: Nobuo Uematsu
------------------------------------------------------------------------------
Tabbed by: DarkOrk (DarkOrk@digicron.com)
For http://www.kontek.net/vgjam/
------------------------------------------------------------------------------

Time signature: 4/4

Standard Tuning: (low to high) EADGBe


 |       |       |       |        |       |       |       |        
|10------7-----------10--7-------|7---------------7---------------|
|------------8---------------8---|--------8-------------------10--|
|----------------9---------------|--------------------------------|
|--------------------------------|--------------------------------|
|--------------------------------|--------------------------------|
|--------------------------------|--------------------------------|

 |       |       |       |        |       |       |       |        
|------5-------------------------|------7-10--12--13--------------|
|8---8---8---6---8-----------6---|8---8---------------------------|
|--------------------------------|--------------------------------|
|--------------------------------|--------------------------------|
|--------------------------------|--------------------------------|
|--------------------------------|--------------------------------|

 |       |       |       |        |       |       |       |        
|10------7-----------10--7-------|7---------------7---------------|
|------------8---------------8---|--------8-------------------10--|
|----------------9---------------|--------------------------------|
|--------------------------------|--------------------------------|
|--------------------------------|--------------------------------|
|--------------------------------|--------------------------------|

 |       |       |       |        |       |       |       |        
|------5-------------------------|------7-10--12--13--------------|
|8---8---8---6---8-----------6---|8---8---------------------------|
|--------------------------------|--------------------------------|
|--------------------------------|--------------------------------|
|--------------------------------|--------------------------------|
|--------------------------------|--------------------------------|

 |       |       |       |        |       |       |       |        
|12------8---------------8---12--|10------15------10----------7---|
|------------10--7---10----------|--------------------------------|
|--------------------------------|--------------------------------|
|--------------------------------|--------------------------------|
|--------------------------------|--------------------------------|
|--------------------------------|--------------------------------|

 |       |       |       |        |       |       |       |        
|8---------------------------8---|7---7-8-7-------7---------------|
|--------10--7-------7---10------|------------10------------------|
|----------------7---------------|--------------------------------|
|--------------------------------|--------------------------------|
|--------------------------------|--------------------------------|
|--------------------------------|--------------------------------|

 |       |       |       |        |       |       |       |        
|12------8---------------8---12--|10------15------10----------7---|
|------------10--7---10----------|--------------------------------|
|--------------------------------|--------------------------------|
|--------------------------------|--------------------------------|
|--------------------------------|--------------------------------|
|--------------------------------|--------------------------------|

 |       |       |       |        |       |       |       |        
|5---5-7-------------------------|------7-8---10--12------14------|
|--------10--8---10----------8---|10--10--------------------------|
|--------------------------------|--------------------------------|
|--------------------------------|--------------------------------|
|--------------------------------|--------------------------------|
|--------------------------------|--------------------------------|


Last revised: 9/2/99

VGJam Tabs Final Fantasy III - "Techno de Chocobo"
Tabs database last modified Tuesday, 01-Nov-2016 19:14:53 UTC.
Copyright © 1999 - 2016 VideoGameJam.com. All rights reserved.