VGJam Tabs Final Fantasy III
Final Fantasy III
"Terra (overworld)" - Guitar tab
Platform(s):Super NES
Composed by:Nobuo Uematsu
Tabbed by:Jonas "Watts" Ohlsson
Last modified:1999-05-06
Print it:Original file (.TXT)
Hear it:MIDI file
FINAL FANTASY III Guitar Tab
Main Theme/Terra's Theme 
Version 2.01
Made By: Jonas "Watts" Ohlsson 
Corrections By: T.J "TankTNT" Nguyen

What's New:
2.01  
  * Corrected a small mistype TJ made when he corrected this
  * Moved all notes down one string
2.00
  * TJ fixed all my mistakes (and there were lots of them!)


e |---------------------------|---------------------------|
B |---------------------------|---------------------------|
G |--------2------------------|--------2-------------2----|
D |--0-2-3---3-----2-0-2------|--0-2-3---3-----2-0-2------|
A |----------------------0----|---------------------------|
E |---------------------------|---------------------------|

e |---------------------------|---------------------------|
B |---------------------------|---------------------------|
G |------2-5-2----------------|---------------------------|
D |--3-5-----------5-3-5------|--3-2-0----3-2-0-----------|
A |----------------------3----|---------------------------|
E |---------------------------|---------------------------|





VGJam Tabs Final Fantasy III - "Terra (overworld)"
Tabs database last modified Tuesday, 01-Nov-2016 19:14:53 UTC.
Copyright © 1999 - 2016 VideoGameJam.com. All rights reserved.