VGJam Tabs Final Fantasy III
Final Fantasy III
"Terra (overworld)" - Guitar tab
Platform(s):Super NES
Composed by:Nobuo Uematsu
Tabbed by:guru45
Last modified:1999-10-20
Print it:Original file (.TXT)
Hear it:MIDI file
the entire song transcribed the right way as it is on the SNES ..

intro
1:-------{---------
2:-------{---------
3:-----4-{-----4---
4:---6---{---6---6-  x4
5:-6-----{-6-------
6:-------{---------

Main
1:----------------------------------------------------------------2------------------------------------
2:--------4------3---3---------------4-------------4---------2--4---4----2---2-------------------------
3:---3--4---4------6------------3--4---4-----3---3--------4----------------4--------4--3--1----4--3--1-
4:-6--------------------------6----------------6------------------------------4------------------------
5:----------------------6------------------------------------------------------------------------------
6:-----------------------------------------------------------------------------------------------------

1:----------------------------------------------------------------2------------------------------------
2:--------4------3---3---------------4-------------4---------2--4---4----2---2-------------------------
3:---3--4---4------6------------3--4---4-----3---3--------4----------------4--------4--3--1----4--3--1-
4:-6--------------------------6----------------6------------------------------4------------------------
5:----------------------6------------------------------------------------------------------------------
6:-----------------------------------------------------------------------------------------------------

1:--------2-----------------------2------------2-------------------------------------------------------
2:---2--4---4---2---2--------2--4---4---2---2---------------4------3---3-------------------------------
3:-4--------------4--------4--------------4------------3--4---4------6---------------------------------
4:-------------------4-------------------------------6-------------------------------------------------
5:-----------------------------------------------------------------------6-----------------------------
6:-----------------------------------------------------------------------------------------------------

Chords:
B G#m C#m F#

D#m G#m C#m B F#

1:-------{---------
2:-------{---------
3:-----4-{-----4---
4:---6---{---6---6-  x4
5:-6-----{-6-------
6:-------{---------

1:----------------------------------------------------------------2------------------------------------
2:--------4------3---3---------------4-------------4---------2--4---4----2---2-------------------------
3:---3--4---4------6------------3--4---4-----3---3--------4----------------4--------4--3--1----4--3--1-
4:-6--------------------------6----------------6------------------------------4------------------------
5:----------------------6------------------------------------------------------------------------------
6:-----------------------------------------------------------------------------------------------------

1:-------{---------
2:-------{---------
3:-----4-{-----4---
4:---6---{---6---6-  x4
5:-6-----{-6-------
6:-------{---------

VGJam Tabs Final Fantasy III - "Terra (overworld)"
Tabs database last modified Tuesday, 01-Nov-2016 19:14:53 UTC.
Copyright © 1999 - 2016 VideoGameJam.com. All rights reserved.