VGJam Tabs Final Fantasy III
Final Fantasy III
"Victory theme" - Guitar tab
Platform(s):Super NES
Composed by:Nobuo Uematsu
Tabbed by:Wriggler
Last modified:2000-02-20
Print it:Original file (.TXT)
Hear it:MIDI file
G----------------------------
D----------------------------
A-----2-2-2-2----0--2--0--2--
E--------------3------------- intro

G----------------2-2-1-2-1-1--------------
D----4-2-4-2-------------------4-2-1-2----
A----------------------------------------4
E-----------------------------------------

then repeat riff two again up til the 2-1-1 on the g string and then end it 
like this...
G--------------2-4---
D----4-2-4-----------

any effects on this would be cool,and if you wanna get fancy,do a tremolo 
dive on that last note!! 

Revisions:
 2/20/2000 - Cleaner format
 12/23/99 - First draft
VGJam Tabs Final Fantasy III - "Victory theme"
Tabs database last modified Tuesday, 01-Nov-2016 19:14:53 UTC.
Copyright © 1999 - 2016 VideoGameJam.com. All rights reserved.