VGJam Tabs Final Fantasy III
Final Fantasy III
"Wild, Wild West (veldt theme)" - Guitar tab
Platform(s):Super NES
Composed by:Nobuo Uematsu
Tabbed by:Deezer
Last modified:1999-08-24
Print it:Original file (.TXT)
Hear it:MIDI file
#----------------------------------PLEASE NOTE---------------------------------#
#This file is the author's own work and represents their interpretation of the #
#song. You may only use this file for private study, scholarship, or research. #
#------------------------------------------------------------------------------#

Final Fantasy III (Super NES) / Final Fantasy VI (Super Famicom)
"Veldt"

Originally composed by: Nobuo Uematsu
------------------------------------------------------------------------------
Tabbed by: Deezer (deezer@usa.net)
For http://www.kontek.net/vgjam/
------------------------------------------------------------------------------

Symbols used:
 / = slide up
 \ = slide down

Standard Tuning - (low to high) EADGBe


|-------------------------------------------
|-------------------------------------------
|-------------------------------------------
|--2------------0-2-3------------2-0-2------
|----------------------------------------2--
|-------------------------------------------

 -------------------------------------------|
 -------------------------------------------|
 ----------------------------------------4--|
 --2------------0-2-3------------2-0-2------|
 -------------------------------------------|
 -------------------------------------------| x2

------------------------------------------10--9--
-------------------------------------------------
-----------------------2--1----------------7--6--
--4------4--3--4----4--------4--3--4-------------
--------------------------------------4----------
-------------------------------------------------

------------------------------------------1------
--------------------------------------2-3---3-2--
-----------------------2--1----------------------
--4------4--3--4----4--------4--3--4-------------
-------------------------------------------------
-------------------------------------------------

------------------------------------------------
------------------------------------------3--2--
-----------------------2--1---------------------
--4------4--3--4----4--------4--3--4------------
--------------------------------------4---------
------------------------------------------------

--------------------------------------
--------------------------------------
-----------------------2--1-----------
--4------4--3--4----4--------4--3--4--
--------------------------------------
--------------------------------------

--7---7--7--10--9-----------7----7--7-5\4/5\4-----------
----------------------------------------------7\6/7-----
--4---4--4---7--6-----------4----4--4-2\1/2\1--------6--
----------------------------------------------4\3/4-----
-----------------------4-----------------------------4--
-------------------3-4----------------------------------

--7---7--7--10--9-----------7----7--7-5\4/5\4--------
----------------------------------------------7\6/7--
--4---4--4---7--6-----------4----4--4-2\1/2\1--------
----------------------------------------------4\3/4--
-----------------------4-----------------------------
-------------------3-4-------------------------------

Repeat from beginning.


Last revised: 8/24/99

VGJam Tabs Final Fantasy III - "Wild, Wild West (veldt theme)"
Tabs database last modified Tuesday, 01-Nov-2016 19:14:53 UTC.
Copyright © 1999 - 2016 VideoGameJam.com. All rights reserved.