VGJam Tabs Final Fantasy V
Final Fantasy V
"Ahead on Our Way" - Guitar tab
Platform(s):Super NES
Composed by:Nobuo Uematsu
Soundtrack:Final Fantasy V Original Sound Version (track D1-01)
Tabbed by:Adam Talbot
Last modified:2000-11-05
Print it:Original file (.TXT)
Hear it:MIDI file
Game: Final Fantasy V
Song: Intro Song
Composer: Nobuo Uematsu
Tablature by: Adam Talbot
   
   
e|  *                rhy fig 1                   *
B|--------------------------------------------------------------------------13--------------------15----        repeat rhy fig 1
G|--12--------------------------14----12--------------------------12----------14------12-------14
D|-------------------------12------------------13--------13----15------------------15---------------
A|---------14-----15------------------------------------------------------------------------------------
E|---------------------------------------------------------------------------------------------------------
                                                    *                 rhy fig 2                   *
e| -----------------------------------------------------------13----11----------------------------------------------------------------------------------
B| ------------------------------------------------15---------------------15----13----15-----------13-----15----------------------13------------ 
G|---------------12-----15-14----------12--------12-------------------------------------14------------------14----12----14---------15---12 
D|---13----15---------------------15------------------------------------------------------------------------------------------------------------------ 
A|--------------------------------------------------------------------------------------------------------------------------------------------------------
E|--------------------------------------------------------------------------------------------------------------------------------------------------------

e|----------------------------------------------------13-----11-------11---------------------------------------------------------------------------- 
B|-----------------------------------------13---------------------15---------15------15-----13-----------------------15-----13---------------- 
G|---12---14---15-----repeat-------------------------------------------------------------------15----12----11----------------15---11--15 
D|-------------------------rhy fig 2-----------15---------------------------------------------------------------------------------------------------
A|------------------------------------------------------------------------------------------------------------------------------------------------------

Ending rhythym is: A#    G#     C#     C

adamctalbot@hotmail.com
VGJam Tabs Final Fantasy V - "Ahead on Our Way"
Tabs database last modified Tuesday, 01-Nov-2016 19:14:53 UTC.
Copyright © 1999 - 2016 VideoGameJam.com. All rights reserved.