VGJam Tabs Final Fantasy V
Final Fantasy V
"Four Valiant Hearts" - Guitar tab
Platform(s):Super NES
Composed by:Nobuo Uematsu
Soundtrack:Final Fantasy V Original Sound Version (track D1-03)
Tabbed by:Arcallach
Last modified:2002-01-09
Print it:Original file (.TXT)
Hear it:MIDI file
Song: Four Hearts
From: Final Fantasy V
Tabbed by Arcallach (arcallach@erols.com)
Feel free to send comments, corrections, requests, or anything else.

e-8~--0-1-3~--10-8~--4~--4-6-8~--13~--10~--6-8~--15~--10~--
B----------------------------------------------------------
G----------------------------------------------------------
D----------------------------------------------------------
A----------------------------------------------------------
E----------------------------------------------------------

e-8~--0-1-3~--10-8~--4~--4-6-8~--11~--10~--6-8~------------
B----------------------------------------------------------
G----------------------------------------------------------
D----------------------------------------------------------
A----------------------------------------------------------
E----------------------------------------------------------

e-8~--9-6~--4-6-8~------8~--9-6~--4-6-8~-------------------
B-------------------1~-------------------------------------
G----------------------------------------------------------
D----------------------------------------------------------
A----------------------------------------------------------
E----------------------------------------------------------

Repeat from the beginning.

VGJam Tabs Final Fantasy V - "Four Valiant Hearts"
Tabs database last modified Tuesday, 01-Nov-2016 19:14:53 UTC.
Copyright © 1999 - 2016 VideoGameJam.com. All rights reserved.