VGJam Tabs Final Fantasy V
Final Fantasy V
"Reminiscence" - Guitar tab
Platform(s):Super NES
Composed by:Nobuo Uematsu
Soundtrack:Final Fantasy V Original Sound Version (track D1-26)
Tabbed by:Arcallach
Last modified:2002-01-26
Print it:Original file (.TXT)
Hear it:MIDI file
Song: Reminiscence
From: Final Fantasy V
Tabbed by Arcallach (arcallach@erols.com)
Feel free to send comments, corrections, requests, or anything else.

Acoustic Guitar/Choir

e-13---12---10---8---6-5-10-5---6-5-10-5-----
B--------------------------------------------
G--------------------------------------------
D--------------------------------------------
A--------------------------------------------
E--------------------------------------------

e-13---12---10---8---6-5-10-5---6-5-10-5-----
B--------------------------------------------
G--------------------------------------------
D--------------------------------------------
A--------------------------------------------
E--------------------------------------------

e-8---7---5---3---1-0-5-0---1-0-5-0----------
B--------------------------------------------
G--------------------------------------------
D--------------------------------------------
A--------------------------------------------
E--------------------------------------------

e-8---7---5---3---1~-------------------------
B--------------------------------------------
G--------------------------------------------
D--------------------------------------------
A--------------------------------------------
E--------------------------------------------

Music Box
                                      (Intro)
e---1-5-6-----1-5-6--------------------------
B-3---------3--------------------------------
G--------------------------------------------
D--------------------------------------------
A--------------------------------------------
E--------------------------------------------

e---1-5-6-----1-5-6-----1-5-6-5-1---1-5-6-5-1-
B-3---------3---------3-----------3-----------
G---------------------------------------------
D---------------------------------------------
A---------------------------------------------
E---------------------------------------------

e---1-5-6-----1-5-6-----1-5-6-5-1---1-5-6-5-1-
B-3---------3---------3-----------3-----------
G---------------------------------------------
D---------------------------------------------
A---------------------------------------------
E---------------------------------------------

e-----0-1-------0-1-------0-1-0-------0-1-0---
B---1---------1---------1-------1---1-------1-
G-2---------2---------2-----------2-----------
D---------------------------------------------
A---------------------------------------------
E---------------------------------------------

e-----0-1-------0-1-------1-2-------1-2-------
B---1---------1---------2---------2-----------
G-2---------2---------3---------3-------------
D---------------------------------------------
A---------------------------------------------
E---------------------------------------------

Repeat from the beginning.

VGJam Tabs Final Fantasy V - "Reminiscence"
Tabs database last modified Tuesday, 01-Nov-2016 19:14:53 UTC.
Copyright © 1999 - 2016 VideoGameJam.com. All rights reserved.