VGJam Tabs Dynasty Warriors 2
Dynasty Warriors 2
"Info on mission" - Guitar tab
Platform(s):PlayStation 2
Tabbed by:psykopath
Last modified:2002-01-10
Print it:Original file (.TXT)
DYNASTY WARRIORS 2 Tab for Guitar
music: Info on mission (After Character select)
by: psykopath
mail: psykopath@hotmail.com

Drop D

If you have any comments, suggestions or changes, please send 'em to 
my mail address! Take note that this is my first tab. If you have any 
improvisations, please mail me!

slide down = /
slide up = \

e|------------------------|
B|------------------------|
G|------------------------|
D|--222/---555---333------|Repeat 2x
A|--222/---555---333------|
D|--222/---555---333------|

e|------------------------|
B|------------------------|
G|------------------------|
D|---8-9-10-11-12---------|
A|---8-9-10-11-12---------|
D|---8-9-10-11-12---------|

e|------------------------|
B|------------------------|
G|------------------------|
D|--222/---555---333------|Repeat 2x
A|--222/---555---333------|
D|--222/---555---333------|

e|------------------------|
B|------------------------|
G|------------------------|
D|--2/---3/---5-----------|Let it ring....
A|--2/---3/---5-----------|
D|--2/---3/---5-----------|

Play this really loud!

VGJam Tabs Dynasty Warriors 2 - "Info on mission"
Tabs database last modified Tuesday, 01-Nov-2016 19:14:53 UTC.
Copyright © 1999 - 2016 VideoGameJam.com. All rights reserved.