VGJam Tabs Final Fantasy V
Final Fantasy V
"The Day Will Come" - Guitar tab
Platform(s):Super NES
Composed by:Nobuo Uematsu
Soundtrack:Final Fantasy V Original Sound Version (track D1-28)
Tabbed by:Jonas "Watts" Ohlsson
Last modified:1999-05-06
Print it:Original file (.TXT)
Hear it:MIDI file
FINAL FANTASY Vj Guitar Tab
The Day Will Come
Version 1.0
Made By: Jonas "Watts" Ohlsson 

     
e |--------------2-----------------------------------|
B |--------4--------5-4-2-4----2-4---------2-0-------|
G |--1-3-4----1-------------3------3---1-3-----1-1---|
D |--------------------------------------------------|
A |--------------------------------------------------|
E |--------------------------------------------------|

e |--------------2--------------------3-1------------|
B |--------4--------5-4-2-4----2----------4-6--------|
G |--1-3-4----1-------------3------1----------7------|
D |--------------------------------------------------|
A |--------------------------------------------------|
E |--------------------------------------------------|

e |--7--4-3--2--0---2-------7---7--------------------|
B |---------------1-----------8----------------------|
G |--------------------------------------------------|
D |--------------------------------------------------|
A |--------------------------------------------------|
E |--------------------------------------------------|
VGJam Tabs Final Fantasy V - "The Day Will Come"
Tabs database last modified Tuesday, 01-Nov-2016 19:14:53 UTC.
Copyright © 1999 - 2016 VideoGameJam.com. All rights reserved.