VGJam Tabs Final Fantasy V
Final Fantasy V
"The Evil Lord Exdeath" - Bass tab
Platform(s):Super NES
Composed by:Nobuo Uematsu
Soundtrack:Final Fantasy V Original Sound Version (track D1-34)
Tabbed by:Stuart Tucker
Last modified:2000-08-07
Print it:Original file (.TXT)
Hear it:MIDI file
Title: Ex-Death (Bassline)
Source: Final Fantasy 5 (Super NES/Super Famicom)
Composer: Nobuo Uematsu
Tabbed by: Stuart Tucker (lordgallard@hotmail.com)

Standard Tuning, low to high, (E,A,D,G)

Intro 
G|-------------------|
D|-5-4-3-------------|
A|------------5-4-3--|
E|-------------------|

Riff 1 
G|------------------------------------------|
D|--------------7-6-------------------------|
A|-----9----------------9-----------------9-|
E|-7-7---7--7-7-----7-7----7--7-7--7-9-10---|

Riff 2
G|--------------7-6------------------------|
D|-----9----------------9----------------9-|
A|-7-7---7--7-7-----7-7---7--7-7--7-9-10---|
E|-----------------------------------------|

Riff 3
G|------------------------|
D|-----9--9-8-7-----------|
A|--------------11-10-9---|
E|-7-7--------------------|


Riff 4
G|-----9--9-8-7-----------|
D|--------------11-10-9---|
A|-7-7--------------------|
E|------------------------|

Intro x1
Riff 1 x2
Riff 2 x2
Riff 3 x4
Riff 4 x4
Intro x2

After this start it over again.
VGJam Tabs Final Fantasy V - "The Evil Lord Exdeath"
Tabs database last modified Tuesday, 01-Nov-2016 19:14:53 UTC.
Copyright © 1999 - 2016 VideoGameJam.com. All rights reserved.