VGJam Tabs Final Fantasy V
Final Fantasy V
"The Land Unknown" - Guitar tab
Platform(s):Super NES
Composed by:Nobuo Uematsu
Soundtrack:Final Fantasy V Original Sound Version (track D2-04)
Tabbed by:Arcallach
Last modified:2002-04-27
Print it:Original file (.TXT)
Hear it:MIDI file
Song: The Land Unknown
From: Final Fantasy V
Tabbed by Arcallach (arcallach@erols.com)
Feel free to send comments, corrections, requests, or anything else.

Bells/Choir

e---------------------------------6-3~----------------------------
B-1-3-4~--4-3---1-----1-3-4~--3~----------------------------------
G-------------3---0~----------------------------------------------
D-----------------------------------------------------------------
A-----------------------------------------------------------------
E-----------------------------------------------------------------

e-4-6-8~--8-6-4-6---------1~--------1~----------------------------
B-----------------4~--1-4-----2-2-4-------------------------------
G-----------------------------------------------------------------
D-----------------------------------------------------------------
A-----------------------------------------------------------------
E-----------------------------------------------------------------

e-----0~--0---------------0~------3~--0~--------------------------
B-1-3-------3-0-1-----1-3-----3~----------------------------------
G-----------------2~----------------------------------------------
D-----------------------------------------------------------------
A-----------------------------------------------------------------
E-----------------------------------------------------------------

e-1-3-5~--5-3-1-3-0---0-------------------------------------------
B-------------------1---3~----------------------------------------
G-----------------------------------------------------------------
D-----------------------------------------------------------------
A-----------------------------------------------------------------
E-----------------------------------------------------------------

Strings

                                                     (Around 0:43)
e-2-3-5~--5-3-1-3-8-0~--1~----0-1-0-5-----------------------------
B---------------------------3---------1~--------------------------
G-----------------------------------------------------------------
D-----------------------------------------------------------------
A-----------------------------------------------------------------
E-----------------------------------------------------------------

e-5~--5-3-1-3~--0-------0-----------------------------------------
B-------------------1-------3~------------------------------------
G-----------------------------------------------------------------
D-----------------------------------------------------------------
A-----------------------------------------------------------------
E-----------------------------------------------------------------

Flute

                                                     (Around 0:25)
e-5~--7~---8~--10~---8---7---5~--7~---8~--10~---------------------
B-5~--8~--10~--12~--10---8---6~--8~--10~--12~---------------------
G-----------------------------------------------------------------
D-----------------------------------------------------------------
A-----------------------------------------------------------------
E-----------------------------------------------------------------

e-10----8---6---10---12---10----8---12---10~---10~----------------
B-10---10---8---11---13---13---10---13----8~----7~----------------
G-----------------------------------------------------------------
D-----------------------------------------------------------------
A-----------------------------------------------------------------
E-----------------------------------------------------------------

Acoustic Guitar
                                                           (Intro)
e-----------------------------------------------------------------
B-----------------------------------------------------------------
G-----------------------------------------------------------------
D-----------------------------------------------------------------
A-0-3---3-0-3---3-0-3---3-0-3---3---------------------------------
E-----------------------------------------------------------------
                                                     
e-----------------------------------------------------------------
B-----------------------------------------------------------------
G-----------------------------------------------------------------
D---1---1---1---1---1---1---1---1---1---1---1---1---1---1---1---1-
A-3-------3-------3-------3-------3-------3-------3-------3-------
E-----------------------------------------------------------------

e-----------------------------------------------------------------
B-----------------------------------------------------------------
G-----------------------------------------------------------------
D---3---3---3---3---1---1---1---1---4---4---4---4---3---3---------
A-4-------4-------3-------3-------4-------4-------3-------3-------
E-----------------------------------------------------------------

e-----------------------------------------------------------------
B-----------------------------------------------------------------
G-----------------------------------------------------------------
D---2-3-2---2-3-2---2-3-2---2---2---2-3-2---2-3-2---2-3-2---2-3-2-
A-0-------0-------0-------0---------------------------------------
E-----------------------------3---1-------1-------1-------1-------

e-----------------------------------------------------------------
B-----------------------------------------3-----------------------
G---2-3-2---2-3-2---0-2-0---0-2-0---0-2-0---0-2-0-----------------
D---------------------------------0---------------0~--------------
A-1-------1-------------------------------------------------------
E-----------------3-------3---------------------------------------

VGJam Tabs Final Fantasy V - "The Land Unknown"
Tabs database last modified Tuesday, 01-Nov-2016 19:14:53 UTC.
Copyright © 1999 - 2016 VideoGameJam.com. All rights reserved.