VGJam Tabs Final Fantasy V
Final Fantasy V
"I'm a Dancer!" - Guitar tab
Platform(s):Super NES
Composed by:Nobuo Uematsu
Soundtrack:Final Fantasy V Original Sound Version (track D2-26)
Tabbed by:Arcallach
Last modified:2002-01-26
Print it:Original file (.TXT)
Hear it:MIDI file
Song: I'm A Dancer!
From: Final Fantasy V
Tabbed by Arcallach (arcallach@erols.com)
Feel free to send comments, corrections, requests, or anything else.

This is a funny little tune that plays when you talk to the dancers in Final 
Fantasy V.

Trumpet

e-5-4-3-3-3-2-1-0-0-0--------------------------
B---------------------4-3-1-3-1-0-1-3-1-0~-----
G----------------------------------------------
D----------------------------------------------
A----------------------------------------------
E----------------------------------------------

e-5-4-3-3-3-2-1-0-0-0--------------------------
B---------------------3-1-0-1-0---0-1-0--------
G-------------------------------2-------2------
D----------------------------------------------
A----------------------------------------------
E----------------------------------------------

Acoustic Guitar Chords

e-5-5--5-5----5-5--5-5----5-5--5-5----4-4--4-4-
B-5-5--5-5----5-5--5-5----5-5--5-5----5-5--5-5-
G-5-5--5-5----5-5--5-5----5-5--5-5----4-4--4-4-
D----------------------------------------------
A----------------------------------------------
E----------------------------------------------

e-4-4--4-4----4-4--4-4----4-4--4-4----5-5--5-5
B-5-5--5-5----5-5--5-5----5-5--5-5----5-5--5-5
G-4-4--4-4----4-4--4-4----4-4--4-4----5-5--5-5
A----------------------------------------------
E----------------------------------------------


VGJam Tabs Final Fantasy V - "I'm a Dancer!"
Tabs database last modified Tuesday, 01-Nov-2016 19:14:53 UTC.
Copyright © 1999 - 2016 VideoGameJam.com. All rights reserved.