VGJam Tabs Genghis Khan II: Clan of the Grey Wolf
Genghis Khan II: Clan of the Grey Wolf
"Title" - Guitar tab
Platform(s):Super NES
Tabbed by:morte700
Last modified:2002-06-07
Print it:Original file (.TXT)
This is the title theme to one of my favorite games on SNES, Genghis Khan 2.
Call me weird, but I love the mournful tone of it.

Slap on some distortion and play it Jimi style

---------------------------------------------------------------
---------------------------------------------------------------
---------------------------------------------------------------
-----0--5--7--8--0--12--10--5----5--7--8--5--5--7--7h8p7s5-----
---------------------------------------------------------------
---------------------------------------------------------------

---------------------------------------------------------------------
---------------------------------------------------------------------
---------------------------------------------------------------------
-----0--5--7--8--0--12--10--5----5--7--8--7h8p7--5--3--0--7----5-----
---------------------------------------------------------------------
---------------------------------------------------------------------

--------------------------------------
--------------------------------------
----------7--5------------------------
------5---------5--5--7--7h8p7--5----- Repeat 2x 
--------------------------------------
--------------------------------------

-----------------------------------------------------------------
--------------6--6--4--4p3---------------------------------------
----------7--------------------5p3h5-----0--2--3--5--3--5--7-----
------5----------------------------------------------------------
-----------------------------------------------------------------
-----------------------------------------------------------------

Well, that's it.  Don't forget to bend and vibrato.  If anyone has
comments/questions/requests, mail me: morte700@aol.com

VGJam Tabs Genghis Khan II: Clan of the Grey Wolf - "Title"
Tabs database last modified Tuesday, 01-Nov-2016 19:14:53 UTC.
Copyright © 1999 - 2016 VideoGameJam.com. All rights reserved.