VGJam Tabs Illusion of Gaia
Illusion of Gaia
"Melody of Lola" - Guitar tab
Platform(s):Super NES
Tabbed by:Thomas Knight
Last modified:2007-03-23
Print it:Original file (.TXT)
Hear it:MIDI file
Song: Melody of Lola
Game: Illusion of Gaia
System: Super NES
Tabbed by Thomas Knight, binarynova@yahoo.com
http://www.usao.edu/~stuknightt

This is my first tab that I've ever submitted. Sounds alright to me.
Tabbed straight from the SPC.
I welcome any comments or suggestions.

Part 1:
e|--10p8h10-----8h10p8-----------------------
B|--------------------10------8----10--------
G|-------------------------10---------10-7---
D|-------------------------------------------
A|-------------------------------------------
E|-------------------------------------------

Part 2:
e|--10p8h10-----8h10p8----------------8-10---
B|--------------------10------8----10--------
G|-------------------------10----------------
D|-------------------------------------------
A|-------------------------------------------
E|-------------------------------------------

Quite simple. Part 2 comes right after Part 1.

VGJam Tabs Illusion of Gaia - "Melody of Lola"
Tabs database last modified Tuesday, 01-Nov-2016 19:14:53 UTC.
Copyright © 1999 - 2016 VideoGameJam.com. All rights reserved.