VGJam Tabs Killer Instinct
Killer Instinct
"Jago's theme" - Guitar tab
Platform(s):Super NES
Tabbed by:Thenamelessavenger
Last modified:2001-04-05
Print it:Original file (.TXT)
Hear it:MIDI file
Jago Stage KI
This is the game version. The bass will come later.
Tabbed by Thenamelessavenger@hotmail.com 

The main synth riff. It is close or exact it may have to change key thatís all. If you can do the toggle trick like Tom Morello this gets pretty wild, just use a harmonizer and play the low strings.

E----------------------
B----------------------
G-------------------5-- I believe you know the rhythm.
D-5-----7-----4-----7--
A-7-----9-----6--------
E----------------------

The lead, off the top of my head, I know this is right.

E-------------------------------------
B-------------------------------------
G-12-14------------------14-12----12- I will call this A
D-------12-14---12-14-12-------14-----
A-------------------------------------
E-------------------------------------

E-------------------------------------
B-------------------------------------
G-12-14------------------14-12-14-15~- I will call this B
D-------12-14---12-14-12--------------
A-------------------------------------
E-------------------------------------

E------------------------------------------------
B------------------------------------------------
G-12-14------------------14-12-14-14-14-14p12---- this is...C
D-------12-14---12-14-12----------------------14-
A------------------------------------------------
E------------------------------------------------

For that section play a,b,a,c, then the second part of the lead.

E---------------------------------------------------------I----------
B---------------------------------------------------------I----------
G-------------------------------------------15~14~--15-14-I----------
D-14-12-15-12---12-14-12---15p14p12---14-12---------------I-15p14p12-
A---------------------------------------------------------I----------
E---------------------------------------------------------I----------
                                                           Play this the first time only.

Then Back to the synth riff and repeat. The soundtrack version is different with the expanded lead but this will get you started. 

VGJam Tabs Killer Instinct - "Jago's theme"
Tabs database last modified Tuesday, 01-Nov-2016 19:14:53 UTC.
Copyright © 1999 - 2016 VideoGameJam.com. All rights reserved.