VGJam Tabs Killer Instinct
Killer Instinct
"Sabrewulf's theme" - Guitar tab
Platform(s):Super NES
Tabbed by:IssacV
Last modified:2002-01-23
Print it:Original file (.TXT)
Hear it:MIDI file
System: Super NES
Title: Killer Instinct
Song: Sabrewulf's stage

Tabbed by:IssacV. (Issac77995@yahoo.com) or:
(http://www.angelfire.com/tx5/butkus/)
This is the organ part only. If anyone would like the other parts contact 
me.
I strongly recommend using hybrid picking for this one.   
(Down stroke 
with pick then upstroke with middle or ring finger)

------------------------------------
------------------------------------
--19------17------19------17--------
------20------19------20------19----
----17--17--17--17--17--17--17--17--
------------------------------------ Repeat a few times then...

--------------------------------------------------------------------
--------------------------------------------------------------------
--19--17------------------------------------------------------------
----------20--19--17--19--20--17--16--17--19--16--17--19--20--17----
----17--17--17--17--17--17--17--17--17--17--17--17--17--17--17--17--
--------------------------------------------------------------------

--------------------------------------------------------------------
--------------------------------------------------------------------
--19--17------------------------------------------------------------
----------20--19--17--19--20--17--16--17--19--16--17------17--20----
----17--17--17--17--17--17--17--17--17--17--17--17--17--17--17--17--
------------------------------------------------------18------------


--------------------------------------------------------------------
--------------------------------------------------------------------
----------------------------------14--17--14--17--------------------
--16--19--16--19--17--20--17--20------------------17--20--17--20----
--------------------------------------------------------------------
----17--17--17--17--15--15--15--15--14--14--14--14--15--15--15--15--
repeat twice (2 times) ahhhh!

--------------------------------------------------------------------
--------------------------------------------------------------------
--20--17------17--19--15------15--17--14------14--19--15------15----
----------19--------------17--------------16--------------1---------
----18--18--18--18--17--17--17--17--15--15--15--15--17--17--17--17--
--------------------------------------------------------------------

----------------------------------------------------------------------
----------------------------------------------------------------------
--20--17------17--19--15------15--17--14------14--17--14--------14----
----------19--------------17--------------16--------------------------
----18--18--18--18--17--17--17--17--15--15--15--15--17--17-21-17--17--
----------------------------------------------------------------------

----------------------
----------------------
--17--14--------14----
----------------------
----17--17-21-17--17--
----------------------repeat this one till it repeats. 

Whew! 
You know whats funny? This is pretty difficult but......
 in the actual game. Its really supposed to be like.....
---------------------------------
---------------------------------
--19-------------17--------------
----------20------------19-------
----17-17---17-17--17-17--17-17--
 --------------------------------
I know its possible though. It has to be! I can sometimes pull it off finger 
pickin' it. Doing middle finger, pointer finger, then thumb over and over 
but it has like a 30% of the time working ratio. (poo)    

MIDI sequencing by IssacV. Using Voyetra equipment and ZNES emulator.
Thanks a billion ZNES. (You got to love those nice sound channel disables!
  It made it so much easier.) 

VGJam Tabs Killer Instinct - "Sabrewulf's theme"
Tabs database last modified Tuesday, 01-Nov-2016 19:14:53 UTC.
Copyright © 1999 - 2016 VideoGameJam.com. All rights reserved.