VGJam Tabs Animal Crossing
Animal Crossing
"K.K. Rock" - Guitar tab
Platform(s):GameCube
Composed by:Kenta Nagata, Toru Minegishi, Shinobu Tanaka
Tabbed by:Deezer
Last modified:2002-11-11
Print it:Original file (.TXT)
Hear it:MIDI file
#----------------------------------PLEASE NOTE---------------------------------#
#This file is the author's own work and represents their interpretation of the #
#song. You may only use this file for private study, scholarship, or research. #
#------------------------------------------------------------------------------#


Animal Crossing (Nintendo GameCube)
"K.K. Rock"

Originally composed by: ?
------------------------------------------------------------------------------
Tabbed by: Deezer (deezer@kontek.net)
For http://www.kontek.net/vgjam/
------------------------------------------------------------------------------

Symbols used:
 x = muted string
 \ = slide down
 > = accent

Standard tuning: (low to high) EADGBe


Intro:
======
 F5                                          G#5
---------------------------------------------------------------------------
---------------------------------------------------------------------------
---------------------------------------------------------------------------
-3---3---x-x-x---3---3---x-x-x---3-3-x-3---x-6--------------------x-x------
-3---3-----x-x-x-3---3-----x-x-x-3-3-x-3---x-6--------------------x-x------
-1---1---------x-1---1---------x-1-1---1-----4------------------------11\1-

Big riff:
=========
 F5
-----------------------------------------------------------------
-----------------------------------------------------------------
-----------------------------------------------------------------
-3---3-------3-------1-------1---3---3-------3-------1-----------
-3---3---x-x-------------3-------3---3---x-x-------------1-------
-1---1---------------------------1---1-----------------------4---

 F5                                      G#5     G5      F#5    
-----------------------------------------------------------------
-----------------------------------------------------------------
-----------------------------------------------------------------
-3---3-------3-------1-------1---3---3---6---6---5---5---4---4---
-3---3---x-x-------------3-------3---3---6---6---5---5---4---4---
-1---1---------------------------1---1---4---4---3---3---2---2---

 F5
-----------------------------------------------------------------
-----------------------------------------------------------------
-----------------------------------------------------------------
-3---3-------3-------1-------1---3---3-------3-------1-----------
-3---3---x-x-------------3-------3---3---x-x-------------1-------
-1---1---------------------------1---1-----------------------4---

 F5                                      G5      A5      Bb5
-----------------------------------------------------------------
-----------------------------------------------------------------
---------------------------------------------------------3---3---
-3---3-------3-------1-------1---3---3---5---5---7---7---3---3---
-3---3---x-x-------------3-------3---3---5---5---7---7---1---1---
-1---1---------------------------1---1---3---3---5---5-----------

 Bb5                     C5  C#5                         Eb5
-----------------------------------------------------------------
-----------------------------------------------------------------
-3---3---3---3-------3---5---6-------6---6---6---6---6---8-8-----
-3---3---3---3---x---3---5---6-------6---6---6---6---6---8-8-----
-1---1---1---1---x---1---3---4-------4---4---4---4---4---6-6-----
-----------------------------------------------------------------

Repeat from beginning.

Then:
Bridge:
=======

 F5
-----------------------------------------------------------------
-----------------------------------------------------------------
-----------------------------------------------------------------
-3---3---x-x-x---3---3---x-x-x---3-----------1---3---1-----------
-3---3-----x-x-x-3---3-----x-x-x-3-------3---------------1-------
-1---1---------x-1---1---------x-1---------------------------4---

 Bb5                              C#5
-----------------------------------------------------------------
-----------------------------------------------------------------
-3---3---3---3---3---3---3---3---6---6---6---6---6---6---6---6---
-3---3---3---3---3---3---3---3---6---6---6---6---6---6---6---6---
-1---1---1---1---1---1---1---1---4---4---4---4---4---4---4---4---
-----------------------------------------------------------------
 >       >       >       >       >       >       >       >   

 Bb5                              C#5         Eb5
-----------------------------------------------------------------
-----------------------------------------------------------------
-3---3---3---3---3---3---3---3---6-----6-----8-------8---8---8---
-3---3---3---3---3---3---3---3---6-----6-----8-------8---8---8---
-1---1---1---1---1---1---1---1---4-----4-----6-------6---6---6---
-----------------------------------------------------------------
 >       >       >       >

 F5          C#5                 F5          C#5
-----------------------------------------------------------------
-----------------------------------------------------------------
-----------------------------------------------------------------
-3---3-------6-----------x-x-x---3---3-------6-----------x-x-x---
-3---3---x---6-------------x-x-x-3---3---x---6-------------x-x-x-
-1---1---x---4-----------------x-1---1---x---4-----------------x-

 F5          C#5                 F5          C#5
-----------------------------------------------------------------
-----------------------------------------------------------------
-----------------------------------------------------------------
-3---3-------6-----------x-x-x---3----------------------x-x------
-3---3---x---6-------------x-x-x-3----------------------x-x------
-1---1---x---4-----------------x-1--------------------------11\1-

Then:
Play Big riff.

Then:
Outro:
======
 F5                                          G#5
---------------------------------------------------------------------------
---------------------------------------------------------------------------
---------------------------------------------------------------------------
-3---3---x-x-x---3---3---x-x-x---3-3-x-3---x-6-----------------------------
-3---3-----x-x-x-3---3-----x-x-x-3-3-x-3---x-6-----------------------------
-1---1---------x-1---1---------x-1-1---1-----4-----------------------------


Last modified: 11/11/2002


VGJam Tabs Animal Crossing - "K.K. Rock"
Tabs database last modified Saturday, 12-Apr-2014 00:15:37 CDT.
Copyright © 1999 - 2014 VideoGameJam.com. All rights reserved.