VGJam Tabs Dynasty Warriors 5
Dynasty Warriors 5
"His Way" - Guitar tab
Platform(s):PlayStation 2
Composed by:Toru Hasebe, MASA, Michihiko Shichi, et al.
Soundtrack:Shin Sangokumusou 4 Original Sound Track [KECH-1332/3] (track D1-04)
Tabbed by:Deezer
Last modified:2005-03-20
Print it:Original file (.TXT)
#----------------------------------PLEASE NOTE---------------------------------#
#This file is the author's own work and represents their interpretation of the #
#song. You may only use this file for private study, scholarship, or research. #
#------------------------------------------------------------------------------#

Dynasty Warriors 5 (PlayStation 2)
"His Way"

Originally composed by: ?
------------------------------------------------------------------------------
Tabbed by: Deezer (deezer AT videogamejam DOT com)
For http://www.videogamejam.com
------------------------------------------------------------------------------


Standard tuning: (low to high) EADGBe


      |               |               |               |
------------------------------------------------------------------
------------------------------------------------------------------
----------------------0-------------0-0-------0---2---------------
------2-----------0-2-------------2-------------------3-----------
------------------------------------------------------------------
-3----------------------------------------------------------------

      |               |               |               |
-----------------------------------------------------------------
-----------------------------------------------------------------
--0-0/1-------0-------------------------------------0------------
3-----------------3---2-----------0-2-3---------3-3---2----------
-----------------------------------------------------------------
-----------------------------------------------------------------

     |                 |               |                |
--------------------------------------------------------------------
--------------------------------------------------------------------
-----------------------0--------------------------------0-----------
---0-2--------0--2--3------------------2-------0--2--3--------------
-3---------------------------------3--------------------------------
--------------------------------------------------------------------

     |               |               |                   |
--------------------------------------------------------------------
--------------------------------------------------------------------
--------------------------------------------------------------------
---2-2-------2-------2----------------------------------------------
---------------3-3-0---3-3---3-------3------------------------------
---------------------------4----------------------------------------

Repeat and fade out.


Last modified: 03/20/2005

VGJam Tabs Dynasty Warriors 5 - "His Way"
Tabs database last modified Tuesday, 01-Nov-2016 19:14:53 UTC.
Copyright © 1999 - 2016 VideoGameJam.com. All rights reserved.