VGJam Tabs Killer Instinct
Killer Instinct
"Title theme" - Guitar tab
Platform(s):Super NES
Tabbed by:IssacV
Last modified:1999-05-15
Print it:Original file (.TXT)
Hear it:MIDI file
Killer Instinct
By: Issac Villarreal

A----------------------------------7-----5---5-5h7-----
E-0-0-0--0--0-0--0-0--0--0-0-0-0-0---0-0---0-----------

A----------------------------------5-----5---5-5h7-----
E-0-0-0--0--0-0--0-0--0--0-0-0-0-0---0-0---0-----------

A----------------------------------7-----5---5-5h7-----
E-0-0-0--0--0-0--0-0--0--0-0-0-0-0---0-0---0-----------

A----------------------------------5---7---5---7---5h7-
E-0-0-0--0--0-0--0-0--0--0-0-0-0-0---0---0---0---0-----
Repeat alot

E-----7-5-------------------7------10-12------------ah------------------
B---8-----8-7-------------8---10-8-------12--10h7h8-10~~~~~-------------
G-9-------------7-9\----9-----------------------------------------------
D-------------9--------------------------------------------------------- 

I will figure the rest out later...

ah=harmonic

VGJam Tabs Killer Instinct - "Title theme"
Tabs database last modified Tuesday, 01-Nov-2016 19:14:53 UTC.
Copyright © 1999 - 2016 VideoGameJam.com. All rights reserved.