VGJam Tabs Killer Instinct
Killer Instinct
"Trailblazer (Cinder's theme)" - Guitar tab
Platform(s):Super NES
Tabbed by:Thomas McManus
Last modified:1999-12-20
Print it:Original file (.TXT)
Hear it:MIDI file
Game: Killer Instinct
Song: Trailblazer (Cinder)
Composer: Robin Beanland or Graeme Norgate
Tabbed by: Thomas McManus (tom0015@hotmail.com)

song order is taken from the Killer Instinct CD

G#5 A#5  B5
e--------------------
B--------------------
G--------------------
D--------------------
A-6---8----9---------
E-4---6----7---------



riff one:
G#5/A#5 G#5/A#5 G#5/A#5 A#5 A#5 G#5/A#5
G#5/A#5 G#5/A#5 G#5/A#5 B5 A#5 G#5/A#5
G#5/A#5 G#5/A#5 G#5/A#5 A#5 A#5 G#5/A#5
G#5/A#5 G#5/A#5 G#5/A#5 B5 A#5 G#5/A#5


riff two (play 16 times)*:
A-1-1-1-1-
E---------


repeat riffs one and two


solo:

e---------------------------------------
B---------------------1~/3/5\3----------
G-3~-3\1~/3~--------1----------1-3------
D------------3~~~------------------1~~~-
A---------------------------------------
E---------------------------------------


repeat riff one


end [near-death music]:

e-------------------------------------------------------------9\0-1-
B------------1~~--1-1-1-2~~--2-2-2-3~~--3-3-3-4~~--4-4-4-5b6--------
G-4~~--4-4-4--------------------------------------------------------
D-------------------------------------------------------------------
A-------------------------------------------------------------------
E-------------------------------------------------------------------



* you could play an A#5 instead. Also, a 2nd guitar could play an
A#5 at the start of the riff after the first 8 times (so they'd play
that for the last 8 repetitions).

VGJam Tabs Killer Instinct - "Trailblazer (Cinder's theme)"
Tabs database last modified Tuesday, 01-Nov-2016 19:14:53 UTC.
Copyright © 1999 - 2016 VideoGameJam.com. All rights reserved.