VGJam Tabs The Legend of Zelda: A Link to the Past
The Legend of Zelda: A Link to the Past
"Dark World" - Guitar tab
Platform(s):Super NES
Composed by:Koji Kondo
Tabbed by:Matthew Fusiek
Last modified:2003-04-14
Print it:Original file (.TXT)
Hear it:MIDI file
Game: The Legend of of Zelda: A Link to the Past
Tab: The Dark World Theme
Console: SNES
Author: Matthew Fusiek
Email: fatt_musiek@hotmail.com

I included the chords the go along with the melody. I see it as a rock 
version of the song. ENJOY!


Rhythm Guitar: G, A, A#, C

Verse Chords: C, F, G#, A#
e|----------------------------------------------------
B|----------------------------------------------------
G|-------5--2/3/2-------------------------------------
D|--5---5----------3/55---3-0/1/0---------------------
A|-3---3---------------3~---------3~------------------
E|----------------------------------------------------

e|----------------------------------------------------
B|----------------------------------------------------
G|-------5--2/3/2-------------------------------------
D|--5---5----------3/55---3-0/1/0---------------------
A|-3---3---------------3~---------3~------------------
E|----------------------------------------------------


Chords: D#, F, G#, A#, D#, F#, D#, D....G
e|----------------------------------------------------
B|----------------------------------------------------
G|-0/2-3~--2-3--2-0-----------------------------------
D|-----------------3~-0/3-5~---5-3-1/0----------------
A|----------------------------3--------3~-------------
E|----------------------------------------------------
-
e|----------------------------------------------------
B|----------------------------------------------------
G|-0/2-3~--2-3-2/3-5~--2-3--2-3-2/1/2~----------------
D|-------------------------------------5--------------
A|----------------------------------------------------
E|----------------------------------------------------

Bridge Chords: G#, G, F, D#, D, C, D
e|----------------------------------------------------
B|----------------------------------------------------
G|-5/3-----5-5/3-----3-1------3-------------5-3---5-7~
D|----3/5~------3/5~------3~---6------5----5---3-5----
A|------------------------------756~---645------------
E|----------------------------------------------------

VGJam Tabs The Legend of Zelda: A Link to the Past - "Dark World"
Tabs database last modified Tuesday, 01-Nov-2016 19:14:53 UTC.
Copyright © 1999 - 2016 VideoGameJam.com. All rights reserved.