VGJam Tabs The Legend of Zelda: A Link to the Past
The Legend of Zelda: A Link to the Past
"Dark World" - Guitar tab
Platform(s):Super NES
Composed by:Koji Kondo
Tabbed by:Not So Great Juja
Last modified:2007-07-16
Date added:2008-03-02
Print it:Original file (.TXT)
Hear it:MIDI file
Game: A Link to the Past
Song: Dark World
Composed by: Koji Kondo
Tabbed by: Not So Great Juja (Paul Mella)

Key:
~ = vibrato
p = pull-off
h = hammer-on
/ = slide
pm = palm-mute
tr = tremolo picking

Any questions or comments -
please, E-mail me at: TheDeviLisDavidHerbert@gmail.com

I know this tab is probably going to be a pain
in the ass to read, but all the parts are there.

Don't look to this tab to get the timing down,
especially for the bass and  rhythm.

intro:


e|--------------------------------------------------|
B|--------------------------------------------------|
G|--------------------------------------------------|
D|--5---5---5--5--5--7------8---8---8--8--8-10------|
A|--6---6---6--6--6--8-----10--10--10-10-10-12------|
E|--------------------------------------------------| x2
 |                                                  |
G|--------------------------------------------------|
D|--------------------------------------------------|
A|--3---3--------3------3---3---3--------3------3---|
E|--------------------------------------------------|

main song:

e|--------------------------------------------------|
B|--------------------------------------------------|
G|----------------------17---14h15p14---------------|
D|----17-------------17-----------------------------|
A|-15-------------15--------------------------------|
E|--------------------------------------------------|
 |                                                  |
e|--------------------------------------------------|
B|--------------------------------------------------|
G|--------------------------------------------------|
D|----------------------17--15p13h15----------------|
A|----18-------------18-----------------------------|
E|-15-------------15--------------------------------|
 |                                                  |
e|--------------------------------------------------|
B|--------------------------------------------------|
G|--------------------------------------------------|
D|--5---5---5--5--5--5-------7---7---7--7--7--7-----|
A|--6---6---6--6--6--6-------8---8---8--8--8--8-----|
E|--------------------------------------------------|
 |                                                  |
G|--------------------------------------------------|
D|--------------------------3---3--------3------3---|
A|--3---3--------3------3---------------------------|
E|--------------------------------------------------|



e|--------------------------------------------------|
B|--------------------------------------------------|
G|--------------------------------------------------|
D|15h17----------------15---12h13p12----------------|
A|-------15-----------------------------------------|
E|--------------------------------------------------|
 |                                                  |
e|--------------------------------------------------|
B|--------------------------------------------------|
G|--------------------------------------------------|
D|15p13---------------------12h13-------------------|
A|---------------------17---------13----------------|
E|------16------------------------------------------|
 |                                                  |
e|--------------------------------------------------|
B|--------------------------------------------------|
G|--------------------------------------------------|
D|--5---5---5--5--5--5-------3---3---3--3--3--3-----|
A|--6---6---6--6--6--6-------5---5---5--5--5--5-----|
E|--------------------------------------------------|
 |                                                  |
G|--------------------------------------------------|
D|--------------------------------------------------|
A|--6---6--------6------6---5---5--------5------5---|
E|--------------------------------------------------|



e|-------------------------15-----------------------|
B|----------------------------15--------------------|
G|----------------------17--------------------------|
D|--------------------------------------------------|
A|-15-----------------------------------------------|
E|--------------------------------------------------|
 |                                                  |
e|-------------------------15-----------------------|
B|----------------------------15--------------------|
G|----------------------17--------------------------|
D|--------------------------------------------------|
A|--------------------------------------------------|
E|-15-----------------------------------------------|
 |                                                  |
e|--------------------------------------------------|
B|--------------------------------------------------|
G|--------------------------------------------------|
D|--5---5---5--5--5--7------8---8---8--8--8-10------|
A|--6---6---6--6--6--8-----10--10--10-10-10-12------|
E|--------------------------------------------------|
 |                                                  |
G|--------------------------------------------------|
D|--------------------------------------------------|
A|--3---3--------3------3---3---3--------3------3---|
E|--------------------------------------------------|

This is the same as the previous part,
but a new part comes in:

e|--------------------------------------------------|
B|--------------20-----------18-------------------16|
G|--------------------------------------------------|
D|--------------------------------------------------|
A|-15-----------------------------------------------|
E|--------------------------------------------------|
 |                                                  |
e|--------------------------------------------------|
B|--------------------------------------------------|
G|----------------------17---14h15p14---------------|
D|-17----------------17-----------------------------|
A|----------------15--------------------------------|
E|--------------------------------------------------|
 |                                                  |
e|--------------------------------------------------|
B|--------------------------------------------------|
G|--------------------------------------------------|
D|----------------------17--15p13h15----------------|
A|-18----------------18-----------------------------|
E|-----------------15-------------------------------|
 |                                                  |
e|--------------------------------------------------|
B|--------------------------------------------------|
G|--------------------------------------------------|
D|--5---5---5--5--5--5-------7---7---7--7--7--7-----|
A|--6---6---6--6--6--6-------8---8---8--8--8--8-----|
E|--------------------------------------------------|
 |                                                  |
G|--------------------------------------------------|
D|--------------------------3---3--------3------3---|
A|--3---3--------3------3---------------------------|
E|--------------------------------------------------|



e|--------------------------------------------------|
B|15h16---------------------15----------------------|
G|--------------------------------------------------|
D|--------------------------------------------------|
A|--------------------------------------------------|
E|--------------------------------------------------|
 |                                                  |
e|--------------------------------------------------|
B|--------------------------------------------------|
G|--------------------------------------------------|
D|15h17----------------15---12h13p12----------------|
A|-------15-----------------------------------------|
E|--------------------------------------------------|
 |                                                  |
e|--------------------------------------------------|
B|--------------------------------------------------|
G|--------------------------------------------------|
D|15p13---------------------12h13-------------------|
A|---------------------17---------13----------------|
E|------16------------------------------------------|
 |                                                  |
e|--------------------------------------------------|
B|--------------------------------------------------|
G|--------------------------------------------------|
D|--5---5---5--5--5--5-------3---3---3--3--3--3-----|
A|--6---6---6--6--6--6-------5---5---5--5--5--5-----|
E|--------------------------------------------------|
 |                                                  |
G|--------------------------------------------------|
D|--------------------------------------------------|
A|--6---6--------6------6---5---5--------5------5---|
E|--------------------------------------------------|



e|--------------------------------------------------|
B|-13-------------------18-16-15----15--------------|
G|-------------------------------17-----------------|
D|--------------------------------------------------|
A|--------------------------------------------------|
E|--------------------------------------------------|
 |                                                  |
e|--------------------------------------------------|
B|----------------------18-16-15----15--------------|
G|-------------------------------17-----------------|
D|--------------------------------------------------|
A|-15-----------------------------------------------|
E|--------------------------------------------------|
 |                                                  |
e|--------------------------------------------------|
B|----------------------18-16-15----15--------------|
G|-------------------------------17-----------------|
D|--------------------------------------------------|
A|--------------------------------------------------|
E|-15-----------------------------------------------|
 |                                                  |
e|--------------------------------------------------|
B|--------------------------------------------------|
G|--------------------------------------------------|
D|--5---5---5--5--5--7------8---8---8--8--8-10------|
A|--6---6---6--6--6--8-----10--10--10-10-10-12------|
E|--------------------------------------------------|
 |                                                  |
G|--------------------------------------------------|
D|--------------------------------------------------|
A|--3---3--------3------3---3---3--------3------3---|
E|--------------------------------------------------|

It plays a bunch of different octaves of this main part,
but I'm only going to tab one.

e|--------------------------------------------------|
B|--------------------------------------------------|
G|-12-14-15-------------12-15-14-12-----------------|
D|----------------------------------15--------------|
A|--------------------------------------------------|
E|--------------------------------------------------|
 |                                                  |
e|--------------------------------------------------|
B|--------------------------------------------------|
G|-3--3--3-3-3-3--3-3-3--5---5---5--5--5--5--5--5--5|
D|-5--5--5-5-5-5--5-5-5--3---3---3--3--3--3--3--3--3|
A|--------------------------------------------------|
E|--------------------------------------------------|
 |                                                  |
G|--------------------------------------------------|
D|-----------------------3--3---3--3--3--3--3--3--3-|
A|6--6--6-6-6-6--6-6-6------------------------------|
E|--------------------------------------------------|



e|--------------------------------------------------|
B|--------------------------------------------------|
G|------12-----------------12-10--------------------|
D|13-15-----------------10-------13-12--------------|
A|--------------------------------------------------|
E|--------------------------------------------------|
 |                                                  |
e|--------------------------------------------------|
B|--------------------------------------------------|
G|-5--5--5-5-5-5-5-5-5-5-3--3---3--3--3--3--3--3--3-|
D|-6--6--6-6-6-6-6-6-6-6-3--3---3--3--3--3--3--3--3-|
A|--------------------------------------------------|
E|--------------------------------------------------|
 |                                                  |
G|--------------------------------------------------|
D|6--6--6-6-6-6--6-6-6---8--8---8--8--8--8--8--8--8-|
A|--------------------------------------------------|
E|--------------------------------------------------|

A new part comes in here.

e|--------------------------------------------------|
B|----------------------------------13--------------|
G|-12-14-15-------------12-15-14-15-----------------|
D|--------------------------------------------------|
A|--------------------------------------------------|
E|--------------------------------------------------|
 |                                                  |
e|--------------------------------------------------|
B|--------------------------------------------------|
G|-12-14-12----------------12----12-14--------------|
D|----------------------13----15--------------------|
A|--------------------------------------------------|
E|--------------------------------------------------|
 |                                                  |
e|--------------------------------------------------|
B|--------------------------------------------------|
G|-3--3--3-3-3-3--3-3-3--5---5---5--5--5--5--5--5--5|
D|-5--5--5-5-5-5--5-5-5--3---3---3--3--3--3--3--3--3|
A|--------------------------------------------------|
E|--------------------------------------------------|
 |                                                  |
G|--------------------------------------------------|
D|-----------------------3--3---3--3--3--3--3--3--3-|
A|6--6--6-6-6-6--6-6-6------------------------------|
E|--------------------------------------------------|



e|--------------------------------------------------|
B|--------------------------------------------------|
G|-15-------------------14-15-14-13-14--------------|
D|--------------------------------------------------|
A|--------------------------------------------------|
E|--------------------------------------------------|
 |                                                  |
e|--------------------------------------------------|
B|--------------------------------------------------|
G|--------------------------------------------------|
D|-17-------------------17-17-16-16-16--------------|
A|--------------------------------------------------|
E|--------------------------------------------------|
 |                                                  |
e|--------------------------------------------------|
B|--------------------------------------------------|
G|-3--3--3-3-3-3--3-3-3-----2--2--2-2-2-2--2-2-2----|
D|-2--2--2-2-2-2--2-2-2-----4--4--4-4-4-4--4-4-4----|
A|--------------------------------------------------|
E|--------------------------------------------------|
 |                                                  |
G|--------------------------------------------------|
D|2--2--2-2-2-2--2-2-2------0--0--0-0-0-0--0-0-0----|
A|--------------------------------------------------|
E|--------------------------------------------------|



e|--------------------------------------------------|
B|--------------------------------------------------|
G|-12-----------------------------------------------|
D|--------------------------------------------------|
A|--------------------------------------------------|
E|--------------------------------------------------|
 |                                                  |
e|--------------------------------------------------|
B|--------------------------------------------------|
G|--------------------------------------------------|
D|-12-----------------------------------------------|
A|--------------------------------------------------|
E|--------------------------------------------------|
 |                                                  |
e|--------------------------------------------------|
B|--3---3---3--3--5---5------6---6---6--6--5---5----|
G|--3---3---3--3--5---5------7---7---7--7--5---5----|
D|--------------------------------------------------|
A|--------------------------------------------------|
E|--------------------------------------------------|
 |                                                  |
G|--------------------------------------------------|
D|5--5--5-5-5-5--5-5-5------5--5--5-5-5-5--5-5-5----|
A|--------------------------------------------------|
E|--------------------------------------------------|

And finally, here's the last part of the song:

e|--------------------------------------------------|
B|--------------------------------------------------|
G|-17-----------------17--15------------------------|
D|---17-15h17----------------17-15h17---------------|
A|--------------------------------------------------|
E|--------------------------------------------------|
 |                                                  |
e|--------------------------------------------------|
B|-4----4----4---4--4--4--3-----3----3----3---3--3--|
G|-5----5----5---5--5--5--3-----3----3----3---3--3--|
D|--------------------------------------------------|
A|--------------------------------------------------|
E|--------------------------------------------------|
 |                                                  |
G|--------------------------------------------------|
D|6----6----6----6-6-6---5-----5-----5----5-5-5-----|
A|--------------------------------------------------|
E|--------------------------------------------------|



e|--------------------------------------------------|
B|--------------------------------------------------|
G|-15-----------------15--14------------------------|
D|---15-13h15----------------13-12h13---------------|
A|--------------------------------------------------|
E|--------------------------------------------------|
 |                                                  |
e|--------------------------------------------------|
B|--------------------------------------------------|
G|-5----5----5---5--5--5-1-----1-----1----1-1-1-----|
D|-3----3----3---3--3--3-1-----1-----1----1-1-1-----|
A|--------------------------------------------------|
E|--------------------------------------------------|
 |                                                  |
G|--------------------------------------------------|
D|3----3----3----3-3-3---3-----3-----3----3-3-3-----|
A|--------------------------------------------------|
E|--------------------------------------------------|



e|--------------------------------------------------|
B|--------------------------------------------------|
G|------------------------17---------------------17-|
D|-17-----------------17----17-15h17-------------17-|
A|---17-15h17---------------------------------------|
E|--------------------------------------------------|
 |                                                  |
e|--------------------------------------------------|
B|--------------------------------------------------|
G|--------------------------------------------------|
D|5----5----5----5-5-5---5-----5-----5----5-5-5-----|
A|5----5----5----5-5-5---6-----6-----6----6-6-6-----|
E|--------------------------------------------------|
 |                                                  |
G|--------------------------------------------------|
D|2----2----2----2-2-2---1-----1-----1----1-1-1-----|
A|--------------------------------------------------|
E|--------------------------------------------------|



e|--------------------------------------------------|
B|15------------------------------------------------|
G|11--------------------10--------------------------|
D|--------------------------------------------------|
A|--------------------------------------------------|
E|--------------------------------------------------|
 |                                                  |
e|--------------------------------------------------|
B|--------------------------------------------------|
G|--------------------------------------------------|
D|4----4----4----4-4-4---5-----5-----3----3-3-3-----|
A|5----5----5----5-5-5---2-----2-----2----2-2-2-----|
E|--------------------------------------------------|
 |                                                  |
G|--------------------------------------------------|
D|0----0----0----0-0-0---5-----5-----5----5-5-5-----|
A|--------------------------------------------------|
E|--------------------------------------------------|

VGJam Tabs The Legend of Zelda: A Link to the Past - "Dark World"
Tabs database last modified Monday, 21-Jul-2014 21:11:05 CDT.
Copyright © 1999 - 2014 VideoGameJam.com. All rights reserved.