VGJam Tabs The Legend of Zelda: A Link to the Past
The Legend of Zelda: A Link to the Past
"Light World" - Guitar tab
Platform(s):Super NES
Composed by:Koji Kondo
Tabbed by:Steve Barbano
Last modified:2002-07-06
Print it:Original file (.TXT)
Hear it:MIDI file
#----------------------------------PLEASE NOTE---------------------------------#
#This file is the author's own work and represents their interpretation of the #
#song. You may only use this file for private study, scholarship, or research. #
#-----------------------------------------------------------------------------##
Song: Light World (Overworld)
Game: Zelda - A Link to the Past
Composer: Koji Kondo
Transcribed By: Steve Barbano 

Tempo = 135
Time Signature = 4/4

         Standard Tuning (E A D G B E)

      Just keep repeating the theme over and over as many times
      as you like.  The bars are in 4/4 time.

Main Theme:
|----------------------------|----------------------------|
|----------------------------|----------------------------|
|---3-----------3--3-3--3--3-|---3--1-3------3--3-3--3--3-|
|----------------------------|----------------------------|
|----------------------------|----------------------------|
|----------------------------|----------------------------|

|----------------------------|-----------------------------|
|----------------------------|-----------------------------|
|---3--1-3------3--3-3--3--3-|---3-------------------------|
|----------------------------|------3-3-3--3-3-3--3-3-3--3-|
|----------------------------|-----------------------------|
|----------------------------|-----------------------------|


|-----------------------|----1----------1--1-2-4-|---6-----------6--6-4-2-|
|-------------------1-3-|--4---------------------|------------------------|
|---3-----------3-3-----|------------------------|------------------------|
|--------3--------------|------------------------|------------------------|
|-----------------------|------------------------|------------------------|
|-----------------------|------------------------|------------------------|

|---4--2-1--------1---|--------1-2--------1----|----------1-------------|
|---------------------|---4--4---------------4-|---2--2-4----------4--2-|
|---------------------|------------------------|------------------------|
|---------------------|------------------------|------------------------|
|---------------------|------------------------|------------------------|
|---------------------|------------------------|------------------------|


|----------0--------3---|----1-------------------------|------------------------|
|---1--1-3--------------|------------------------------|--------------------1-3-|
|-----------------------|------------------------------|----3-----------3-3-----|
|-----------------------|-------3-3-3--3-3-3--3-3-3--3-|---------3--------------|
|-----------------------|------------------------------|------------------------|
|-----------------------|------------------------------|------------------------|

|----1----------1--1-2-4-|---6------------9---|----8-------------------|
|--4---------------------|--------------------|---------10-------------|
|------------------------|--------------------|-------------------10---|
|------------------------|--------------------|------------------------|
|------------------------|--------------------|------------------------|
|------------------------|--------------------|------------------------|


|-----------------------|-------------------------|-----------------------|
|------------------11---|----10-------------------|------------------11---|
|----11-----------------|----------10--------10---|----11-----------------|
|-----------------------|-------------------------|-----------------------|
|-----------------------|-------------------------|-----------------------|
|-----------------------|-------------------------|-----------------------|

|------------------------|---------------------|----------------------|
|----10------------------|-----------------7---|----6-----------------|
|----------10--------7---|----8----------------|---------6--------3---|
|------------------------|---------------------|----------------------|
|------------------------|---------------------|----------------------|
|------------------------|---------------------|----------------------|


|-----------0--------3---|
|---------3--------------|
|----5--5----------------|
|------------------------|
|------------------------|
|------------------------|
VGJam Tabs The Legend of Zelda: A Link to the Past - "Light World"
Tabs database last modified Tuesday, 01-Nov-2016 19:14:53 UTC.
Copyright © 1999 - 2016 VideoGameJam.com. All rights reserved.