VGJam Tabs Lemmings
Lemmings
"This Should Be a Doddle!" - Guitar tab
Platform(s):Super NES
Tabbed by:devoid
Last modified:2001-08-15
Print it:Original file (.TXT)
Lemmings - Unknown

So far, I have yet to hear a midi, mod, or any other type of file made 
for this song. I also have no idea
what famous piece of music it's based on(since most(most,
not all) of the music in this game is loosely based
on existing pieces of music). But seeing as how it's
a neat song, and I'm sure there are tons of Lemmings 
fans out there who are familiar with it, I've tabbed it 
anyway. For clarity's sake, it's level 1 on the 'tricky' 
setting, in the SNES and Amiga versions of the game.
e:--------------------------------------------------------
B:--------------------------------------------------------
G:--------------------------------------------------------
D:---------------4---4-5-7--4--5--4-----------------------
A:---5--5--5--7----7----------------5--7--7--5------------
E:--------------------------------------------------------

e:--------------------------------------------------------
B:--------------------------------------------------------
G:--------------------------------------------------------
D:----------------4---4-5-7--4--5--4----------------------
A:-----5--5--5--7----7----------------5--7--7--5----------
E:---5----------------------------------------------------

e:--------------------------------------------------------
B:--------------------------------------------------------
G:-----------4--------------------------------------------
D:-----4-7-----7-5-4-------4-5-7-------4------------------
A:---5---------------7-5-7----------5-----7--5------------
E:--------------------------------5-------------5---------

e:--------------------------------------------------------
B:--------------------------------------------------------
G:--------------------------------------------------------
D:----------------4---4-5-7--4--5--4----------------------
A:-----5--5--5--7----7----------------5--7--7--5----------
E:---5----------------------------------------------------

e:--------------------------------------------------------
B:---0h5p0h5p0--------------------------------------------
G:--------------------------------------------------------
D:----------------5--7------------------------------------
A:----------------------7---------------------------------
E:--------------------------------------------------------

e:--------------------------------------------------------
B:--------------------------------------------------------
G:--------------------------------------------------------
D:---9-7-6-------6----------------6-7-6-------------------
A:---------9-7-9---7------------7-------------------------
E:----------------------7-7-7-9---------------------------

e:--------------------------------------------------------
B:---0h5p0h5p0--------------------------------------------
G:--------------------------------------------------------
D:----------------5--7------------------------------------
A:----------------------7---------------------------------
E:--------------------------------------------------------

e:--------------------------------------------------------
B:--------------------------------------------------------
G:--------------------------------------------------------
D:---9-7-6-------6----------------6-7-6-------------------
A:---------9-7-9---7------------7-------------------------
E:----------------------7-7-7-9---------------------------

VGJam Tabs Lemmings - "This Should Be a Doddle!"
Tabs database last modified Tuesday, 01-Nov-2016 19:14:53 UTC.
Copyright © 1999 - 2016 VideoGameJam.com. All rights reserved.