VGJam Tabs Lufia and the Fortress of Doom
Lufia and the Fortress of Doom
"Town theme" - Guitar tab
Platform(s):Super NES
Tabbed by:Dan Liss
Last modified:2002-07-02
Print it:Original file (.TXT)
Hear it:MIDI file
Town Theme
From Lufia
Original Composer: Nobuo Uematsu
Arrangement by: Dan Liss
                http://www.geocities.com/burning_prince_music
                graves2344@hotmail.com
                AIM: Culex2344

This is the Town Theme music for the first ever Lufia game on the SNES.
Drop me an email if you have any questions, just listen to the MIDI
file as you are playing this, it will all make sense then..

| 1 ----------------------------------------------------- |
| 2 ----------------11--------------------------13------- |
| 3 ----------13-12----13-----------------15-14----15---- |
| 4 -10-11-13-------------13-----12-13-15-------------15- |
| 5 ----------------------------------------------------- |
| 6 ----------------------------------------------------- |

| 1 ------------------------------------------------------- |
| 2 ------------------------------------------------------- |
| 3 -12-12-13-15-15-13----------------------------12------- |
| 4 -------------------13-------13-12-12-13-15-15----15-13- |
| 5 ----------------------15-16---------------------------- |
| 6 ------------------------------------------------------- |

| 1 ----------------------------------------------------- |
| 2 ----------------11--------------------------13------- |
| 3 ----------13-12----13-----------------15-14----15---- |
| 4 -10-11-13-------------13-----12-13-15-------------15- |
| 5 ----------------------------------------------------- |
| 6 ----------------------------------------------------- |

| 1 ---------------------------------------------------- |
| 2 ----------------------16-14-13---------------------- |
| 3 -12-12-13-15-15-13-------------13-------12-13-15-13- |
| 4 -------------------13-------------15-15------------- |
| 5 ---------------------------------------------------- |
| 6 ---------------------------------------------------- |

| 1 ---------6-----------------------------6-------8---6----- |
| 2 -6-9-8-9---9-8-9---9---9-------6-9-8-9---9-8-9---------9- |
| 3 -----------------8---6---5-6-8-------------------8---6--- |
| 4 --------------------------------------------------------- |
| 5 --------------------------------------------------------- |
| 6 --------------------------------------------------------- |

| 1 ---11-11-9-8----------8---------8-9-9-9-8----11- |
| 2 -9-----------9-9-11-9---11-9-11-----------11---- |
| 3 ------------------------------------------------ |
| 4 ------------------------------------------------ |
| 5 ------------------------------------------------ |
| 6 ------------------------------------------------ |

| 1 ----------------------------------------------------- |
| 2 ----------------11--------------------------13------- |
| 3 ----------13-12----13-----------------15-14----15---- |
| 4 -10-11-13-------------13-----12-13-15-------------15- |
| 5 ----------------------------------------------------- |
| 6 ----------------------------------------------------- |

| 1 ------------------------------------------------------- |
| 2 ------------------------------------------------------- |
| 3 -12-12-13-15-15-13----------------------------12------- |
| 4 -------------------13-------13-12-12-13-15-15----15-13- |
| 5 ----------------------15-16---------------------------- |
| 6 ------------------------------------------------------- |

| 1 ----------------------------------------------------- |
| 2 ----------------11--------------------------13------- |
| 3 ----------13-12----13-----------------15-14----15---- |
| 4 -10-11-13-------------13-----12-13-15-------------15- |
| 5 ----------------------------------------------------- |
| 6 ----------------------------------------------------- |

| 1 ---------------------------------------------------- |
| 2 ----------------------16-14-13---------------------- |
| 3 -12-12-13-15-15-13-------------13-------12-13-15-13- |
| 4 -------------------13-------------15-15------------- |
| 5 ---------------------------------------------------- |
| 6 ---------------------------------------------------- |

| 1 ---------6-----------------------------6-------8---6----- |
| 2 -6-9-8-9---9-8-9---9---9-------6-9-8-9---9-8-9---------9- |
| 3 -----------------8---6---5-6-8-------------------8---6--- |
| 4 --------------------------------------------------------- |
| 5 --------------------------------------------------------- |
| 6 --------------------------------------------------------- |

| 1 ---11-11-9-8----------8---------8-9-9-9-8----11- |
| 2 -9-----------9-9-11-9---11-9-11-----------11---- |
| 3 ------------------------------------------------ |
| 4 ------------------------------------------------ |
| 5 ------------------------------------------------ |
| 6 ------------------------------------------------ |

VGJam Tabs Lufia and the Fortress of Doom - "Town theme"
Tabs database last modified Tuesday, 01-Nov-2016 19:14:53 UTC.
Copyright © 1999 - 2016 VideoGameJam.com. All rights reserved.