VGJam Tabs Lufia II
Lufia II
"Boss battle" - Guitar tab
Platform(s):Super NES
Tabbed by:Marc Brulotte
Last modified:2001-12-24
Print it:Original file (.TXT)
Hear it:MIDI file
Tabbed by Marc Brulotte
e-mail: starcraft_9000@hotmail.com

Lufia 2: Boss battle


E|----9-10-12-----9-10-12--10h12-10-9----9-10----|----9-10-12-----9-10-12--10h12-10-9----9-17-15~|
B|-12----------12---------------------12---------|-12----------12---------------------12---------|
G|--------------------------------------------11-|-----------------------------------------------|
D|-----------------------------------------------|-----------------------------------------------|
A|-----------------------------------------------|-----------------------------------------------|
E|-----------------------------------------------|-----------------------------------------------|

E|----9-10-12-----9-10-12--10h12-10-9----9-10----------------------------------------------------|
B|-12----------12---------------------12------------10-------------------------------------------|
G|--------------------------------------------11--9----11----------------9-----------------------|
D|---------------------------------------------------------9-9---9-11-12---12-11-9-11~~~--9------|
A|-----------------------------------------------------------------------------------------------|
E|-----------------------------------------------------------------------------------------------|

E|----------14--12-15-17-14--------------------------------------------|
B|-15-14-12-------------------12-15-14-12--11-12--12-15-14-12--14-12---|
G|-------------------------------------------------------------------15|
D|---------------------------------------------------------------------|
A|---------------------------------------------------------------------|
E|---------------------------------------------------------------------|

E|----------14--12-15-17-14---------------14-14--14-12-17-15-14-12-14-|
B|-15-14-12-------------------15-14-11-12-----------------------------|
G|--------------------------------------------------------------------|
D|--------------------------------------------------------------------|
A|--------------------------------------------------------------------|
E|--------------------------------------------------------------------|

E|----22-19----------------19--------------------------17-15--14-12---14|
B|-19-------19--17-15-17-19---19-----15-14-15-17-15-----------------15--|
G|-------------------------------16-----------------14------------------|
D|----------------------------------------------------------------------|
A|----------------------------------------------------------------------|
E|----------------------------------------------------------------------|

E|----22-19----------------19--------------------17-19------------------|
B|-19-------19--17-15-17-19---19-----15-14-15-17------------------------|
G|-------------------------------16-------------------------------------|
D|----------------------------------------------------------------------|
A|----------------------------------------------------------------------|
E|----------------------------------------------------------------------|

VGJam Tabs Lufia II - "Boss battle"
Tabs database last modified Tuesday, 01-Nov-2016 19:14:53 UTC.
Copyright © 1999 - 2016 VideoGameJam.com. All rights reserved.