VGJam Tabs Final Fantasy X
Final Fantasy X
"Otherworld" - Guitar tab
Platform(s):PlayStation 2
Composed by:Nobuo Uematsu, Masashi Hamauzu, Junya Nakano
Soundtrack:Final Fantasy X Original Soundtrack [SSCX-10054~7] (track D1-05)
Tabbed by:Deezer
Last modified:2005-03-19
Print it:Original file (.TXT)
#----------------------------------PLEASE NOTE---------------------------------#
#This file is the author's own work and represents their interpretation of the #
#song. You may only use this file for private study, scholarship, or research. #
#------------------------------------------------------------------------------#

Final Fantasy X (PlayStation 2)
"Otherworld"

Originally composed by: Nobuo Uematsu
------------------------------------------------------------------------------
Tabbed by: Deezer (deezer AT videogamejam DOT com)
For http://www.videogamejam.com
------------------------------------------------------------------------------

Symbols used:
     b = bend
     v = vibrato
 pm... = palm mute
    PH = pinch harmonic


Tuning: Drop-D tuning, down 1/2 step - (low to high) DbAbDbGbBbEb


Intro:
======

eb|---------10------------------------------
Bb|---------13b15-------------10------------
Gb|---------------------------12b14vvvv-----
Db|-0-0-------------0-0---------------------
Ab|-0-0-------------0-0---------------------
Db|-0-0-------------0-0---------------------

eb|---------10----------------------
Bb|---------13b15-------------------
Gb|---------------------------------
Db|-0-0---------------6-5-6-5-6-5-3-
Ab|-0-0---------------6-5-6-5-6-5-3-
Db|-0-0---------------6-5-6-5-6-5-3-

eb|---------10------------------------------
Bb|---------13b15-------------10------------
Gb|---------------------------12b14vvvv-----
Db|-0-0-------------0-0---------------------
Ab|-0-0-------------0-0---------------------
Db|-0-0-------------0-0---------------------

eb|---------10------------------------
Bb|---------13b15---------------------
Gb|-----------------------------------
Db|-0-0---------------6-5-6-5-6-5-3-5-
Ab|-0-0---------------6-5-6-5-6-5-3-5-
Db|-0-0---------------6-5-6-5-6-5-3-5-

eb|---------------------------------
Bb|---------------------------------
Gb|---------------------------------
Db|-----3p2-----5p3-----7---6p5---3-
Ab|-----3p2-----5p3-----7---6p5---3-
Db|-0-0-3p2-0-0-5p3-0-0-7---6p5---3-
   pm..     . .     . .

eb|---------------------------------
Bb|---------------------------------
Gb|---------------------------------
Db|-----3p2-----5p3-----7---6\3-----
Ab|-----3p2-----5p3-----7---6\3-----
Db|-0-0-3p2-0-0-5p3-0-0-7---6\3-----
   pm..     . .     . .

eb|---------------------------------
Bb|---------------------------------
Gb|---------------------------------
Db|-----3p2-----5p3-----7---6p5---3-
Ab|-----3p2-----5p3-----7---6p5---3-
Db|-0-0-3p2-0-0-5p3-0-0-7---6p5---3-
   pm..     . .     . .

eb|--------------------------------------------------------------
Bb|--------------------------------------------------------------
Gb|--------------------------------------------------------------
Db|-----3p2-----5p3-----7---6\3------------(3)/-15\0-------------
Ab|-----3p2-----5p3-----7---6\3------------(3)/-15\0-------------
Db|-0-0-3p2-0-0-5p3-0-0-7---6\3------------(3)/-15\0-------------
   pm..     . .     . .

Verse riff 1:
=============

eb|---------------------------------
Bb|---------------------------------
Gb|---------------------------------
Db|-----3p2-----5p3-----7---6p5---3-
Ab|-----3p2-----5p3-----7---6p5---3-
Db|-0-0-3p2-0-0-5p3-0-0-7---6p5---3-
   pm..     . .     . .

  ---------------------------------|
  ---------------------------------|
  ---------------------------------|
  -----3p2-----5p3-----7---6\3-----|
  -----3p2-----5p3-----7---6\3-----|
  -0-0-3p2-0-0-5p3-0-0-7---6\3-----| x2
  pm..      . .     . .

Verse riff 2:
=============

eb|-15-15-15---15-15-15----14-14-14--14-14-14--14-14-14--
Bb|-15-15-15---15-15-15----13-13-13--13-13-13--13-13-13--
Gb|------------------------------------------------------
Db|------------------------------------------------------
Ab|------------------------------------------------------
Db|------------------------------------------------------

  -15-15-15---15-15-15----14-14-14--14-14-14--14-14-14--|
  -15-15-15---15-15-15----13-13-13--13-13-13--13-13-13--|
  ------------------------------------------------------|
  ------------------------------------------------------|
  ------------------------------------------------------|
  ------------------------------------------------------| x2

eb|-------------------------
Bb|-------------------------
Gb|-------------------------
Db|-------------------------
Ab|-----------1-------------
Db|-0-2-3-5-6---------------
   pm.. . . .

Play Verse riff 1 again.

Verse riff 3:
=============

eb|--------------------------------------------------------------------
Bb|--------------------------------------------------------------------
Gb|---------7---------------7---------------7---------------7----------
Db|-0-0-7-------7p0-0-0-8-------8p0-0-0-7-------7p0-0-0-6-----6vvvv----
Ab|--------------------------------------------------------------------
Db|--------------------------------------------------------------------
   pm..             . .             . .             . .       PH

eb|--------------------------------------------------------------------
Bb|--------------------------------------------------------------------
Gb|---------7---------------7---------------7---------------7----------
Db|-0-0-7-------7p0-0-0-8-------8p0-0-0-9-------9p0-0-0-8-----8vvvv----
Ab|--------------------------------------------------------------------
Db|--------------------------------------------------------------------
   pm..             . .             . .             . .

eb|-------------------------------------
Bb|-------------------------------------
Gb|-----------------------------7vvvv---
Db|-----3p2---5p3---3p2---5p3-----------
Ab|-----3p2---5p3---3p2---5p3-----------
Db|-0-0-3p2-0-5p3-0-3p2-0-5p3-0--------- x2
   pm..     .     .     .     .

Solo:
=====

Fake it.

Solo background 1:
==================

eb|-------------------------------------
Bb|-------------------------------------
Gb|-----------------------------7vvvv---
Db|-----3p2---5p3---3p2---5p3-----------
Ab|-----3p2---5p3---3p2---5p3-----------
Db|-0-0-3p2-0-5p3-0-3p2-0-5p3-0--------- x5
   pm..     .     .     .     .

eb|-------------------------------------
Bb|-------------------------------------
Gb|-------------------------------------
Db|-----5-----7-----5-----7-----0-------
Ab|-----5-----7-----5-----7-----0-------
Db|-0-0-5-0-0-7-0-0-5-0-0-7-0-0-0-------
   pm..   . .   . .   . .   . .  

eb|-------------------------------------
Bb|-------------------------------------
Gb|-------------------------------------
Db|-----3p2---5p3---3p2---5p3-----------
Ab|-----3p2---5p3---3p2---5p3---5-------
Db|-0-0-3p2-0-5p3-0-3p2-0-5p3-0---------
   pm..     .     .     .     .

Solo background 2:
==================

eb|---------------------------------------------------------------|
Bb|---------------------------------------------------------------|
Gb|-------------------------2---5---7-----5-----2-----------------|
Db|-0-----3-----5-----6-----2---5---7-----5-----2-----6-----5---3-|
Ab|-0-----3-----5-----6-----0---3---5-----3-----0-----6-----5---3-|
Db|-0-----3-----5-----6-------------------------------6-----5---3-| x2

More soloing... Play Verse riff 3 once behind it.

Then play Verse riff 1 x8 (start fading out the seventh time).
That's it! Enjoy. Hope it's right... ;)


Revision history:
 01/19/2002 - First draft.
 03/19/2005 - Changed some stuff, now probably about 98-100% accurate.

VGJam Tabs Final Fantasy X - "Otherworld"
Tabs database last modified Tuesday, 01-Nov-2016 19:14:53 UTC.
Copyright © 1999 - 2016 VideoGameJam.com. All rights reserved.